999
DXF file: bg_BG-E1531-300BD-254-SS.dxf
999
Pro/ENGINEER 2020414 by Parametric Technology Corporation
  0
SECTION
  2
HEADER
  9
$ACADVER
  1
AC1032
  9
$DWGCODEPAGE
  3
ANSI_1252
  9
$EXTMAX
 10
22.0
 20
17.0
 30
0.0
  9
$EXTMIN
 10
0.0
 20
0.0
 30
0.0
  9
$LIMMIN
 10
0.0
 20
0.0
  9
$LIMMAX
 10
22.0
 20
17.0
  9
$VIEWCTR
 10
11.0
 20
8.5
  9
$VIEWSIZE
 40
17.0
  9
$CLAYER
  8
0
  9
$LTSCALE
 40
1.21
  9
$CELTYPE
  6
BYLAYER
  9
$DIMSCALE
 40
1.0
  9
$DIMASZ
 40
0.1875
  9
$DIMEXO
 40
0.0625
  9
$DIMDLI
 40
0.836
  9
$DIMEXE
 40
0.125
  9
$DIMCEN
 40
0.198
  9
$DIMLFAC
 40
8.0
  9
$DIMBLK
  1
_CLOSED
  9
$DIMALT
 70
0
  9
$DIMALTF
 40
25.4
  9
$DIMTXT
 40
0.15625
  9
$DIMTOL
 70
0
  9
$DIMLIM
 70
0
  9
$DIMTFAC
 40
1.0
  9
$DIMGAP
 40
0.09
  9
$DIMDSEP
 70
46
  9
$AUNITS
 70
0
  9
$PDMODE
 70
3
  9
$PDSIZE
 40
0.3125
  9
$HANDSEED
  5
3B9
  9
$TILEMODE
 70
1
  9
$MEASUREMENT
 70
0
  9
$INSUNITS
 70
1
  0
ENDSEC
  0
SECTION
  2
CLASSES
  0
CLASS
  1
ACDBDICTIONARYWDFLT
  2
AcDbDictionaryWithDefault
  3
AutoCAD 2000
 90
0
 91
1
280
0
281
0
  0
CLASS
  1
ACDBPLACEHOLDER
  2
AcDbPlaceHolder
  3
AutoCAD 2000
 90
0
 91
1
280
0
281
0
  0
CLASS
  1
LAYOUT
  2
AcDbLayout
  3
AutoCAD 2000
 90
0
 91
0
280
0
281
0
  0
ENDSEC
  0
SECTION
  2
TABLES
  0
TABLE
  2
VPORT
  5
8
100
AcDbSymbolTable
 70
2
  0
VPORT
  5
1F4
100
AcDbSymbolTableRecord
100
AcDbViewportTableRecord
  2
*ACTIVE
 70
0
 10
0.0
 20
0.0
 11
1.0
 21
1.0
 12
11.0
 22
8.5
 13
0.0
 23
0.0
 14
1.0
 24
1.0
 15
0.0
 25
0.0
 16
0.0
 26
0.0
 36
1.0
 17
0.0
 27
0.0
 37
0.0
 40
17.0
 41
1.2941176471
 42
50.0
 43
0.0
 44
0.0
 50
0.0
 51
0.0
 71
0
 72
100
 73
1
 74
1
 75
0
 76
0
 77
0
 78
0
  0
ENDTAB
  0
TABLE
  2
LTYPE
  5
5
100
AcDbSymbolTable
 70
6
  0
LTYPE
  5
14
100
AcDbSymbolTableRecord
100
AcDbLinetypeTableRecord
  2
BYBLOCK
 70
0
  3

 72
65
 73
0
 40
0.0
  0
LTYPE
  5
15
100
AcDbSymbolTableRecord
100
AcDbLinetypeTableRecord
  2
BYLAYER
 70
0
  3

 72
65
 73
0
 40
0.0
  0
LTYPE
  5
16
100
AcDbSymbolTableRecord
100
AcDbLinetypeTableRecord
  2
CONTINUOUS
 70
64
  3
Solid line
 72
65
 73
0
 40
0.0
  0
LTYPE
  5
1F5
100
AcDbSymbolTableRecord
100
AcDbLinetypeTableRecord
  2
CENTER
 70
64
  3
____ _ ____ _ ____ _ ____ _ ____ _ ____ _ ____
 72
65
 73
4
 40
0.6
 49
0.375
 74
0
 49
-0.075
 74
0
 49
0.075
 74
0
 49
-0.075
 74
0
  0
LTYPE
  5
1F6
100
AcDbSymbolTableRecord
100
AcDbLinetypeTableRecord
  2
HIDDEN
 70
64
  3
- - - - - - - - - - - - - - - - - - - -
 72
65
 73
2
 40
0.2
 49
0.1
 74
0
 49
-0.1
 74
0
  0
LTYPE
  5
1F7
100
AcDbSymbolTableRecord
100
AcDbLinetypeTableRecord
  2
PHANTOM
 70
64
  3
_____ _ _ _____ _ _ _____ _ _ _____
 72
65
 73
6
 40
0.8
 49
0.45
 74
0
 49
-0.05
 74
0
 49
0.1
 74
0
 49
-0.05
 74
0
 49
0.1
 74
0
 49
-0.05
 74
0
  0
LTYPE
  5
1F8
100
AcDbSymbolTableRecord
100
AcDbLinetypeTableRecord
  2
DOT
 70
64
  3
. . . . . . . . . . . . . . . . . . . .
 72
65
 73
2
 40
0.2
 49
0.1
 74
0
 49
-0.1
 74
0
  0
LTYPE
  5
1F9
100
AcDbSymbolTableRecord
100
AcDbLinetypeTableRecord
  2
DASHED
 70
64
  3
- - - - - - - - - - - - - - - - - - - -
 72
65
 73
2
 40
0.2
 49
0.1
 74
0
 49
-0.1
 74
0
  0
ENDTAB
  0
TABLE
  2
LAYER
  5
2
100
AcDbSymbolTable
 70
36
  0
LAYER
  5
10
100
AcDbSymbolTableRecord
100
AcDbLayerTableRecord
  2
0
 70
0
 62
7
  6
CONTINUOUS
370
-3
390
F
  0
LAYER
  5
1FA
100
AcDbSymbolTableRecord
100
AcDbLayerTableRecord
  2
DEFAULT_1
 70
0
 62
7
  6
CENTER
370
-3
390
F
  0
LAYER
  5
1FB
100
AcDbSymbolTableRecord
100
AcDbLayerTableRecord
  2
DEFAULT_2
 70
0
 62
7
  6
HIDDEN
370
-3
390
F
  0
LAYER
  5
1FC
100
AcDbSymbolTableRecord
100
AcDbLayerTableRecord
  2
DEFAULT_3
 70
0
 62
7
  6
PHANTOM
370
-3
390
F
  0
LAYER
  5
1FD
100
AcDbSymbolTableRecord
100
AcDbLayerTableRecord
  2
01_ALL_DTM_PLN
 70
0
 62
7
  6
CONTINUOUS
370
-3
390
F
  0
LAYER
  5
1FE
100
AcDbSymbolTableRecord
100
AcDbLayerTableRecord
  2
01__ASM_ALL_DTM_PLN
 70
0
 62
7
  6
CONTINUOUS
370
-3
390
F
  0
LAYER
  5
1FF
100
AcDbSymbolTableRecord
100
AcDbLayerTableRecord
  2
01__ASM_DEF_DTM_PLN
 70
0
 62
7
  6
CONTINUOUS
370
-3
390
F
  0
LAYER
  5
200
100
AcDbSymbolTableRecord
100
AcDbLayerTableRecord
  2
01___PRT_ALL_DTM_PLN
 70
0
 62
7
  6
CONTINUOUS
370
-3
390
F
  0
LAYER
  5
201
100
AcDbSymbolTableRecord
100
AcDbLayerTableRecord
  2
01___PRT_DEF_DTM_PLN
 70
0
 62
7
  6
CONTINUOUS
370
-3
390
F
  0
LAYER
  5
202
100
AcDbSymbolTableRecord
100
AcDbLayerTableRecord
  2
02_ALL_AXES
 70
0
 62
7
  6
CONTINUOUS
370
-3
390
F
  0
LAYER
  5
203
100
AcDbSymbolTableRecord
100
AcDbLayerTableRecord
  2
02__ASM_ALL_AXES
 70
0
 62
7
  6
CONTINUOUS
370
-3
390
F
  0
LAYER
  5
204
100
AcDbSymbolTableRecord
100
AcDbLayerTableRecord
  2
02___PRT_ALL_AXES
 70
0
 62
7
  6
CONTINUOUS
370
-3
390
F
  0
LAYER
  5
205
100
AcDbSymbolTableRecord
100
AcDbLayerTableRecord
  2
03_ALL_CURVES
 70
0
 62
7
  6
CONTINUOUS
370
-3
390
F
  0
LAYER
  5
206
100
AcDbSymbolTableRecord
100
AcDbLayerTableRecord
  2
03__ASM_ALL_CURVES
 70
0
 62
7
  6
CONTINUOUS
370
-3
390
F
  0
LAYER
  5
207
100
AcDbSymbolTableRecord
100
AcDbLayerTableRecord
  2
03___PRT_ALL_CURVES
 70
0
 62
7
  6
CONTINUOUS
370
-3
390
F
  0
LAYER
  5
208
100
AcDbSymbolTableRecord
100
AcDbLayerTableRecord
  2
04_ALL_DTM_PNT
 70
0
 62
7
  6
CONTINUOUS
370
-3
390
F
  0
LAYER
  5
209
100
AcDbSymbolTableRecord
100
AcDbLayerTableRecord
  2
04__ASM_ALL_DTM_PNT
 70
0
 62
7
  6
CONTINUOUS
370
-3
390
F
  0
LAYER
  5
20A
100
AcDbSymbolTableRecord
100
AcDbLayerTableRecord
  2
04___PRT_ALL_DTM_PNT
 70
0
 62
7
  6
CONTINUOUS
370
-3
390
F
  0
LAYER
  5
20B
100
AcDbSymbolTableRecord
100
AcDbLayerTableRecord
  2
05_ALL_DTM_CSYS
 70
0
 62
7
  6
CONTINUOUS
370
-3
390
F
  0
LAYER
  5
20C
100
AcDbSymbolTableRecord
100
AcDbLayerTableRecord
  2
05__ASM_ALL_DTM_CSYS
 70
0
 62
7
  6
CONTINUOUS
370
-3
390
F
  0
LAYER
  5
20D
100
AcDbSymbolTableRecord
100
AcDbLayerTableRecord
  2
05__ASM_DEF_DTM_CSYS
 70
0
 62
7
  6
CONTINUOUS
370
-3
390
F
  0
LAYER
  5
20E
100
AcDbSymbolTableRecord
100
AcDbLayerTableRecord
  2
05___PRT_ALL_DTM_CSYS
 70
0
 62
7
  6
CONTINUOUS
370
-3
390
F
  0
LAYER
  5
20F
100
AcDbSymbolTableRecord
100
AcDbLayerTableRecord
  2
05___PRT_DEF_DTM_CSYS
 70
0
 62
7
  6
CONTINUOUS
370
-3
390
F
  0
LAYER
  5
210
100
AcDbSymbolTableRecord
100
AcDbLayerTableRecord
  2
06_ALL_SURFS
 70
0
 62
7
  6
CONTINUOUS
370
-3
390
F
  0
LAYER
  5
211
100
AcDbSymbolTableRecord
100
AcDbLayerTableRecord
  2
06__ASM_ALL_SURFS
 70
0
 62
7
  6
CONTINUOUS
370
-3
390
F
  0
LAYER
  5
212
100
AcDbSymbolTableRecord
100
AcDbLayerTableRecord
  2
06___PRT_ALL_SURFS
 70
0
 62
7
  6
CONTINUOUS
370
-3
390
F
  0
LAYER
  5
213
100
AcDbSymbolTableRecord
100
AcDbLayerTableRecord
  2
07__ASM_ALL_SKELETONS
 70
0
 62
7
  6
CONTINUOUS
370
-3
390
F
  0
LAYER
  5
214
100
AcDbSymbolTableRecord
100
AcDbLayerTableRecord
  2
DTM
 70
0
 62
7
  6
CONTINUOUS
370
-3
390
F
  0
LAYER
  5
215
100
AcDbSymbolTableRecord
100
AcDbLayerTableRecord
  2
HIDE
 70
0
 62
7
  6
CONTINUOUS
370
-3
390
F
  0
ENDTAB
  0
TABLE
  2
STYLE
  5
3
100
AcDbSymbolTable
 70
1
  0
STYLE
  5
11
100
AcDbSymbolTableRecord
100
AcDbTextStyleTableRecord
  2
STANDARD
 70
0
 40
0.0
 41
0.8
 50
0.0
 71
0
 42
0.2
  3
SIMPLEX.SHX
  4

  0
STYLE
  5
216
100
AcDbSymbolTableRecord
100
AcDbTextStyleTableRecord
  2
TEXTSTYLE_1
 70
0
 40
0.0
 41
0.8
 50
0.0
 71
0
 42
0.2
  3
gdt
  4

  0
ENDTAB
  0
TABLE
  2
VIEW
  5
6
100
AcDbSymbolTable
 70
0
  0
ENDTAB
  0
TABLE
  2
UCS
  5
7
100
AcDbSymbolTable
 70
0
  0
ENDTAB
  0
TABLE
  2
APPID
  5
9
100
AcDbSymbolTable
 70
1
  0
APPID
  5
217
100
AcDbSymbolTableRecord
100
AcDbRegAppTableRecord
  2
ACAD
 70
0
  0
ENDTAB
  0
TABLE
  2
BLOCK_RECORD
  5
1
100
AcDbSymbolTable
 70
0
  0
BLOCK_RECORD
  5
218
100
AcDbSymbolTableRecord
100
AcDbBlockTableRecord
  2
*Model_Space
  0
BLOCK_RECORD
  5
219
100
AcDbSymbolTableRecord
100
AcDbBlockTableRecord
  2
*Paper_Space
  0
BLOCK_RECORD
  5
21A
100
AcDbSymbolTableRecord
100
AcDbBlockTableRecord
  2
_CLOSED
  0
ENDTAB
  0
TABLE
  2
DIMSTYLE
  5
A
100
AcDbSymbolTable
 70
1
100
AcDbDimStyleTable
 71
0
  0
DIMSTYLE
105
21B
100
AcDbSymbolTableRecord
100
AcDbDimStyleTableRecord
  2
STANDARD
 70
0
  3

  4

 40
1.0
 41
0.1875
 42
0.0625
 43
0.38
 44
0.125
 45
0.0
 46
0.0
 47
0.0001
 48
0.0001
140
0.15625
141
0.09
142
0.0
143
25.4
144
1.0
145
0.0
146
1.0
147
0.09
 71
0
 72
0
 73
1
 74
1
 75
0
 76
0
 77
0
 78
4
 79
1
170
0
171
3
172
0
173
0
174
0
175
0
176
0
177
0
178
0
270
2
179
4
271
4
272
4
273
2
274
2
275
0
280
0
281
0
282
0
283
1
284
4
285
0
286
0
287
3
288
0
340
11
278
46
341
21A
342
21A
343
21A
344
21A
  0
ENDTAB
  0
ENDSEC
  0
SECTION
  2
BLOCKS
  0
BLOCK
  5
20
100
AcDbEntity
  8
0
100
AcDbBlockBegin
  2
*Model_Space
 70
0
 10
0.0
 20
0.0
 30
0.0
  3
*Model_Space
  1

  0
ENDBLK
  5
21
100
AcDbEntity
  8
0
100
AcDbBlockEnd
  0
BLOCK
  5
1C
100
AcDbEntity
  8
0
100
AcDbBlockBegin
  2
*Paper_Space
 70
0
 10
0.0
 20
0.0
 30
0.0
  3
*Paper_Space
  1

  0
ENDBLK
  5
1D
100
AcDbEntity
  8
0
100
AcDbBlockEnd
  0
BLOCK
  5
21C
100
AcDbEntity
  8
0
100
AcDbBlockBegin
  2
_CLOSED
 70
64
 10
0.0
 20
0.0
  3
_CLOSED
  1

  0
LINE
  5
21D
100
AcDbEntity
  8
0
  6
BYBLOCK
 62
0
100
AcDbLine
 10
0.0
 20
0.0
 11
-1.0
 21
0.1666666667
  0
LINE
  5
21E
100
AcDbEntity
  8
0
  6
BYBLOCK
 62
0
100
AcDbLine
 10
-1.0
 20
0.1666666667
 11
-1.0
 21
-0.1666666667
  0
LINE
  5
21F
100
AcDbEntity
  8
0
  6
BYBLOCK
 62
0
100
AcDbLine
 10
-1.0
 20
-0.1666666667
 11
0.0
 21
0.0
  0
LINE
  5
220
100
AcDbEntity
  8
0
  6
BYBLOCK
 62
0
100
AcDbLine
 10
-1.0
 20
0.0
 11
0.0
 21
0.0
  0
ENDBLK
  5
221
100
AcDbEntity
  8
0
  6
BYBLOCK
 62
0
100
AcDbBlockEnd
  0
ENDSEC
  0
SECTION
  2
ENTITIES
  0
LINE
  5
222
100
AcDbEntity
  8
0
100
AcDbLine
 62
7
  6
BYLAYER
 10
0.0
 20
0.0
 11
0.0
 21
17.0
  0
LINE
  5
223
100
AcDbEntity
  8
0
100
AcDbLine
 62
7
  6
BYLAYER
 10
0.0
 20
0.0
 11
22.0
 21
0.0
  0
LINE
  5
224
100
AcDbEntity
  8
0
100
AcDbLine
 62
7
  6
BYLAYER
 10
0.0
 20
17.0
 11
22.0
 21
17.0
  0
LINE
  5
225
100
AcDbEntity
  8
0
100
AcDbLine
 62
7
  6
BYLAYER
 10
22.0
 20
0.0
 11
22.0
 21
17.0
  0
LINE
  5
226
100
AcDbEntity
  8
0
100
AcDbLine
 62
7
  6
BYLAYER
 10
3.53125
 20
3.486875625
 11
3.53125
 21
4.951719375
  0
LINE
  5
227
100
AcDbEntity
  8
0
100
AcDbLine
 62
7
  6
BYLAYER
 10
3.6125
 20
3.4692975
 11
3.6125
 21
5.0786725
  0
LINE
  5
228
100
AcDbEntity
  8
0
100
AcDbLine
 62
7
  6
BYLAYER
 10
4.304625
 20
3.4846526001
 11
4.304625
 21
3.4380475
  0
LINE
  5
229
100
AcDbEntity
  8
0
100
AcDbLine
 62
7
  6
BYLAYER
 10
7.2013442636
 20
3.8038963489
 11
7.345
 21
3.8423887874
  0
LINE
  5
22A
100
AcDbEntity
  8
0
100
AcDbLine
 62
7
  6
BYLAYER
 10
6.6445000023
 20
3.55211
 11
6.023375
 21
3.53570375
  0
LINE
  5
22B
100
AcDbEntity
  8
0
100
AcDbLine
 62
7
  6
BYLAYER
 10
4.304625
 20
3.4380475
 11
5.648375
 21
3.4380475
  0
LINE
  5
22C
100
AcDbEntity
  8
0
100
AcDbLine
 62
7
  6
BYLAYER
 10
4.304625
 20
3.4617975
 11
5.648375
 21
3.4617975
  0
LINE
  5
22D
100
AcDbEntity
  8
0
100
AcDbLine
 62
7
  6
BYLAYER
 10
3.5337728417
 20
3.4692975
 11
4.304625
 21
3.4692975
  0
LINE
  5
22E
100
AcDbEntity
  8
0
100
AcDbLine
 62
7
  6
BYLAYER
 10
5.648375
 20
3.4692975
 11
6.023375
 21
3.4692975
  0
LINE
  5
22F
100
AcDbEntity
  8
0
100
AcDbLine
 62
7
  6
BYLAYER
 10
4.304625
 20
3.4846526001
 11
5.648375
 21
3.4846526001
  0
LINE
  5
230
100
AcDbEntity
  8
0
100
AcDbLine
 62
7
  6
BYLAYER
 10
4.804625
 20
4.4253624648
 11
4.804625
 21
4.0132325352
  0
LINE
  5
231
100
AcDbEntity
  8
0
100
AcDbLine
 62
7
  6
BYLAYER
 10
4.82025
 20
4.0630475
 11
4.82025
 21
4.3755475
  0
LINE
  5
232
100
AcDbEntity
  8
0
100
AcDbLine
 62
7
  6
BYLAYER
 10
7.46875
 20
3.6567975
 11
7.345
 21
3.6567975
  0
LINE
  5
233
100
AcDbEntity
  8
0
100
AcDbLine
 62
7
  6
BYLAYER
 10
6.6909249051
 20
3.4454865367
 11
6.6445
 21
3.4536725
  0
LINE
  5
234
100
AcDbEntity
  8
0
100
AcDbLine
 62
7
  6
BYLAYER
 10
7.0075520282
 20
3.389656632
 11
7.0447641639
 21
3.3830951285
  0
LINE
  5
235
100
AcDbEntity
  8
0
100
AcDbLine
 62
7
  6
BYLAYER
 10
5.13275
 20
4.3755475
 11
5.13275
 21
4.0630475
  0
LINE
  5
236
100
AcDbEntity
  8
0
100
AcDbLine
 62
7
  6
BYLAYER
 10
5.148375
 20
4.4253624648
 11
5.148375
 21
4.0132325352
  0
LINE
  5
237
100
AcDbEntity
  8
0
100
AcDbLine
 62
7
  6
BYLAYER
 10
6.1010156253
 20
3.88570375
 11
6.566859377
 21
3.88570375
  0
LINE
  5
238
100
AcDbEntity
  8
0
100
AcDbLine
 62
7
  6
BYLAYER
 10
4.804625
 20
4.0132325352
 11
5.148375
 21
4.0132325352
  0
LINE
  5
239
100
AcDbEntity
  8
0
100
AcDbLine
 62
7
  6
BYLAYER
 10
4.804625
 20
4.0317975
 11
5.148375
 21
4.0317975
  0
LINE
  5
23A
100
AcDbEntity
  8
0
100
AcDbLine
 62
7
  6
BYLAYER
 10
6.566859377
 20
4.1255475
 11
6.1010156253
 21
4.1255475
  0
LINE
  5
23B
100
AcDbEntity
  8
0
100
AcDbLine
 62
7
  6
BYLAYER
 10
5.648375
 20
3.4846526001
 11
5.648375
 21
3.4380475
  0
LINE
  5
23C
100
AcDbEntity
  8
0
100
AcDbLine
 62
7
  6
BYLAYER
 10
6.566859377
 20
4.3130475
 11
6.1010156253
 21
4.3130475
  0
LINE
  5
23D
100
AcDbEntity
  8
0
100
AcDbLine
 62
7
  6
BYLAYER
 10
4.8515
 20
4.4067975
 11
5.1015
 21
4.4067975
  0
LINE
  5
23E
100
AcDbEntity
  8
0
100
AcDbLine
 62
7
  6
BYLAYER
 10
4.804625
 20
4.4253624648
 11
5.148375
 21
4.4253624648
  0
LINE
  5
23F
100
AcDbEntity
  8
0
100
AcDbLine
 62
7
  6
BYLAYER
 10
6.1010156253
 20
4.55289125
 11
6.566859377
 21
4.55289125
  0
LINE
  5
240
100
AcDbEntity
  8
0
100
AcDbLine
 62
7
  6
BYLAYER
 10
5.81790625
 20
5.0786725
 11
5.81790625
 21
3.4692975
  0
LINE
  5
241
100
AcDbEntity
  8
0
100
AcDbLine
 62
7
  6
BYLAYER
 10
5.89915625
 20
3.4692975
 11
5.89915625
 21
5.014219375
  0
LINE
  5
242
100
AcDbEntity
  8
0
100
AcDbLine
 62
7
  6
BYLAYER
 10
5.942125
 20
3.4692975
 11
5.942125
 21
4.971250625
  0
LINE
  5
243
100
AcDbEntity
  8
0
100
AcDbLine
 62
7
  6
BYLAYER
 10
6.023375
 20
4.971250625
 11
6.023375
 21
3.4692975
  0
LINE
  5
244
100
AcDbEntity
  8
0
100
AcDbLine
 62
7
  6
BYLAYER
 10
7.0447641639
 20
5.0554998715
 11
6.6445
 21
4.9849225
  0
LINE
  5
245
100
AcDbEntity
  8
0
100
AcDbLine
 62
7
  6
BYLAYER
 10
7.46875
 20
4.7817975
 11
7.345
 21
4.7817975
  0
LINE
  5
246
100
AcDbEntity
  8
0
100
AcDbLine
 62
7
  6
BYLAYER
 10
6.1010156253
 20
4.55289125
 11
6.1010156253
 21
3.88570375
  0
LINE
  5
247
100
AcDbEntity
  8
0
100
AcDbLine
 62
7
  6
BYLAYER
 10
6.023375
 20
4.971250625
 11
5.942125
 21
4.971250625
  0
LINE
  5
248
100
AcDbEntity
  8
0
100
AcDbLine
 62
7
  6
BYLAYER
 10
6.6445000023
 20
4.886485
 11
6.023375
 21
4.90289125
  0
LINE
  5
249
100
AcDbEntity
  8
0
100
AcDbLine
 62
7
  6
BYLAYER
 10
5.89915625
 20
5.014219375
 11
5.81790625
 21
5.014219375
  0
LINE
  5
24A
100
AcDbEntity
  8
0
100
AcDbLine
 62
7
  6
BYLAYER
 10
3.6125
 20
5.014219375
 11
3.59375
 21
5.014219375
  0
LINE
  5
24B
100
AcDbEntity
  8
0
100
AcDbLine
 62
7
  6
BYLAYER
 10
7.34375
 20
5.0555474997
 11
7.0684371895
 21
5.0555474997
  0
LINE
  5
24C
100
AcDbEntity
  8
0
100
AcDbLine
 62
7
  6
BYLAYER
 10
6.40625
 20
5.0555474997
 11
7.0447641639
 21
5.0555474997
  0
LINE
  5
24D
100
AcDbEntity
  8
0
100
AcDbLine
 62
7
  6
BYLAYER
 10
3.6125
 20
5.0786725
 11
5.81790625
 21
5.0786725
  0
LINE
  5
24E
100
AcDbEntity
  8
0
100
AcDbLine
 62
7
  6
BYLAYER
 10
7.2013442636
 20
4.6346986511
 11
7.345
 21
4.5962062126
  0
LINE
  5
24F
100
AcDbEntity
  8
0
100
AcDbLine
 62
7
  6
BYLAYER
 10
5.942125
 20
4.971250625
 11
5.89915625
 21
5.014219375
  0
LINE
  5
250
100
AcDbEntity
  8
0
100
AcDbLine
 62
7
  6
BYLAYER
 10
6.40625
 20
5.1567975
 11
6.40625
 21
5.0555474997
  0
LINE
  5
251
100
AcDbEntity
  8
0
100
AcDbLine
 62
7
  6
BYLAYER
 10
6.40625
 20
5.1567975
 11
7.34375
 21
5.1567975
  0
LINE
  5
252
100
AcDbEntity
  8
0
100
AcDbLine
 62
7
  6
BYLAYER
 10
6.566859377
 20
4.55289125
 11
6.566859377
 21
3.88570375
  0
LINE
  5
253
100
AcDbEntity
  8
0
100
AcDbLine
 62
7
  6
BYLAYER
 10
6.6445
 20
4.9849225
 11
6.6445
 21
3.4536725
  0
LINE
  5
254
100
AcDbEntity
  8
0
100
AcDbLine
 62
7
  6
BYLAYER
 10
6.65625
 20
5.0185720014
 11
6.65625
 21
4.986994342
  0
LINE
  5
255
100
AcDbEntity
  8
0
100
AcDbLine
 62
7
  6
BYLAYER
 10
6.6909249051
 20
3.4454865367
 11
6.6909249051
 21
4.2192975
  0
LINE
  5
256
100
AcDbEntity
  8
0
100
AcDbLine
 62
7
  6
BYLAYER
 10
7.0075520282
 20
3.389656632
 11
7.0075520282
 21
4.2192975
  0
LINE
  5
257
100
AcDbEntity
  8
0
100
AcDbLine
 62
7
  6
BYLAYER
 10
7.128875
 20
4.9849225
 11
7.128875
 21
3.4536725
  0
LINE
  5
258
100
AcDbEntity
  8
0
100
AcDbLine
 62
7
  6
BYLAYER
 10
7.34375
 20
5.1567975
 11
7.34375
 21
5.0555474997
  0
LINE
  5
259
100
AcDbEntity
  8
0
100
AcDbLine
 62
7
  6
BYLAYER
 10
7.345
 20
4.7817975
 11
7.345
 21
3.6567975
  0
LINE
  5
25A
100
AcDbEntity
  8
0
100
AcDbLine
 62
7
  6
BYLAYER
 10
7.46875
 20
4.7817975
 11
7.46875
 21
3.6567975
  0
LINE
  5
25B
100
AcDbEntity
  8
0
100
AcDbLine
 62
7
  6
BYLAYER
 10
3.53125
 20
12.0719946344
 11
3.53125
 21
13.5368213656
  0
LINE
  5
25C
100
AcDbEntity
  8
0
100
AcDbLine
 62
7
  6
BYLAYER
 10
3.6125
 20
11.9450330003
 11
3.6125
 21
13.6637829997
  0
LINE
  5
25D
100
AcDbEntity
  8
0
100
AcDbLine
 62
7
  6
BYLAYER
 10
4.8515
 20
11.460658
 11
5.1015
 21
11.460658
  0
LINE
  5
25E
100
AcDbEntity
  8
0
100
AcDbLine
 62
7
  6
BYLAYER
 10
4.804625
 20
11.491908
 11
4.82025
 21
11.491908
  0
LINE
  5
25F
100
AcDbEntity
  8
0
100
AcDbLine
 62
7
  6
BYLAYER
 10
5.13275
 20
11.491908
 11
5.148375
 21
11.491908
  0
LINE
  5
260
100
AcDbEntity
  8
0
100
AcDbLine
 62
7
  6
BYLAYER
 10
7.345
 20
12.4274992874
 11
7.2013442636
 21
12.3890068489
  0
LINE
  5
261
100
AcDbEntity
  8
0
100
AcDbLine
 62
7
  6
BYLAYER
 10
4.8515
 20
11.9077049014
 11
5.1015
 21
11.9077049014
  0
LINE
  5
262
100
AcDbEntity
  8
0
100
AcDbLine
 62
7
  6
BYLAYER
 10
4.804625
 20
11.9282895809
 11
5.148375
 21
11.9282895809
  0
LINE
  5
263
100
AcDbEntity
  8
0
100
AcDbLine
 62
7
  6
BYLAYER
 10
3.6125
 20
11.945033
 11
5.81790625
 21
11.945033
  0
LINE
  5
264
100
AcDbEntity
  8
0
100
AcDbLine
 62
7
  6
BYLAYER
 10
4.8515
 20
11.9657369437
 11
5.1015
 21
11.9657369437
  0
LINE
  5
265
100
AcDbEntity
  8
0
100
AcDbLine
 62
7
  6
BYLAYER
 10
4.804625
 20
11.945033
 11
4.804625
 21
11.491908
  0
LINE
  5
266
100
AcDbEntity
  8
0
100
AcDbLine
 62
7
  6
BYLAYER
 10
4.82025
 20
11.9593569198
 11
4.82025
 21
11.945033
  0
LINE
  5
267
100
AcDbEntity
  8
0
100
AcDbLine
 62
7
  6
BYLAYER
 10
4.82025
 20
11.8730551596
 11
4.82025
 21
11.491908
  0
LINE
  5
268
100
AcDbEntity
  8
0
100
AcDbLine
 62
7
  6
BYLAYER
 10
6.023375
 20
12.12081425
 11
6.1010156253
 21
12.1228650313
  0
LINE
  5
269
100
AcDbEntity
  8
0
100
AcDbLine
 62
7
  6
BYLAYER
 10
6.566859377
 20
12.1351697188
 11
6.6445000023
 21
12.1372205
  0
LINE
  5
26A
100
AcDbEntity
  8
0
100
AcDbLine
 62
7
  6
BYLAYER
 10
5.89915625
 20
12.009486125
 11
5.81790625
 21
12.009486125
  0
LINE
  5
26B
100
AcDbEntity
  8
0
100
AcDbLine
 62
7
  6
BYLAYER
 10
3.6125
 20
12.009486125
 11
3.59375
 21
12.009486125
  0
LINE
  5
26C
100
AcDbEntity
  8
0
100
AcDbLine
 62
7
  6
BYLAYER
 10
6.023375
 20
12.052454875
 11
5.942125
 21
12.052454875
  0
LINE
  5
26D
100
AcDbEntity
  8
0
100
AcDbLine
 62
7
  6
BYLAYER
 10
7.345
 20
12.241908
 11
7.46875
 21
12.241908
  0
LINE
  5
26E
100
AcDbEntity
  8
0
100
AcDbLine
 62
7
  6
BYLAYER
 10
6.6445
 20
12.038783
 11
6.6909249051
 21
12.0305970367
  0
LINE
  5
26F
100
AcDbEntity
  8
0
100
AcDbLine
 62
7
  6
BYLAYER
 10
7.0075520282
 20
11.974767132
 11
7.0447641639
 21
11.9682056285
  0
LINE
  5
270
100
AcDbEntity
  8
0
100
AcDbLine
 62
7
  6
BYLAYER
 10
5.13275
 20
11.491908
 11
5.13275
 21
11.8730551596
  0
LINE
  5
271
100
AcDbEntity
  8
0
100
AcDbLine
 62
7
  6
BYLAYER
 10
5.13275
 20
11.945033
 11
5.13275
 21
11.9593569198
  0
LINE
  5
272
100
AcDbEntity
  8
0
100
AcDbLine
 62
7
  6
BYLAYER
 10
5.148375
 20
11.945033
 11
5.148375
 21
11.491908
  0
LINE
  5
273
100
AcDbEntity
  8
0
100
AcDbLine
 62
7
  6
BYLAYER
 10
5.81790625
 20
13.6637829997
 11
5.81790625
 21
11.9450330003
  0
LINE
  5
274
100
AcDbEntity
  8
0
100
AcDbLine
 62
7
  6
BYLAYER
 10
5.89915625
 20
12.009486125
 11
5.89915625
 21
13.599329875
  0
LINE
  5
275
100
AcDbEntity
  8
0
100
AcDbLine
 62
7
  6
BYLAYER
 10
5.942125
 20
12.052454875
 11
5.942125
 21
13.556361125
  0
LINE
  5
276
100
AcDbEntity
  8
0
100
AcDbLine
 62
7
  6
BYLAYER
 10
6.023375
 20
13.556361125
 11
6.023375
 21
12.052454875
  0
LINE
  5
277
100
AcDbEntity
  8
0
100
AcDbLine
 62
7
  6
BYLAYER
 10
6.1010156253
 20
13.4859509688
 11
6.1010156253
 21
13.398727803
  0
LINE
  5
278
100
AcDbEntity
  8
0
100
AcDbLine
 62
7
  6
BYLAYER
 10
6.1010156253
 20
12.210088197
 11
6.1010156253
 21
12.1228650313
  0
LINE
  5
279
100
AcDbEntity
  8
0
100
AcDbLine
 62
7
  6
BYLAYER
 10
7.345
 20
13.366908
 11
7.46875
 21
13.366908
  0
LINE
  5
27A
100
AcDbEntity
  8
0
100
AcDbLine
 62
7
  6
BYLAYER
 10
6.023375
 20
13.48800175
 11
6.1010156253
 21
13.4859509688
  0
LINE
  5
27B
100
AcDbEntity
  8
0
100
AcDbLine
 62
7
  6
BYLAYER
 10
5.942125
 20
12.052454875
 11
5.89915625
 21
12.009486125
  0
LINE
  5
27C
100
AcDbEntity
  8
0
100
AcDbLine
 62
7
  6
BYLAYER
 10
6.023375
 20
13.556361125
 11
5.942125
 21
13.556361125
  0
LINE
  5
27D
100
AcDbEntity
  8
0
100
AcDbLine
 62
7
  6
BYLAYER
 10
5.89915625
 20
13.599329875
 11
5.81790625
 21
13.599329875
  0
LINE
  5
27E
100
AcDbEntity
  8
0
100
AcDbLine
 62
7
  6
BYLAYER
 10
3.6125
 20
13.599329875
 11
3.59375
 21
13.599329875
  0
LINE
  5
27F
100
AcDbEntity
  8
0
100
AcDbLine
 62
7
  6
BYLAYER
 10
3.6125
 20
13.663783
 11
5.81790625
 21
13.663783
  0
LINE
  5
280
100
AcDbEntity
  8
0
100
AcDbLine
 62
7
  6
BYLAYER
 10
7.345
 20
13.1813167126
 11
7.2013442636
 21
13.2198091511
  0
LINE
  5
281
100
AcDbEntity
  8
0
100
AcDbLine
 62
7
  6
BYLAYER
 10
5.942125
 20
13.556361125
 11
5.89915625
 21
13.599329875
  0
LINE
  5
282
100
AcDbEntity
  8
0
100
AcDbLine
 62
7
  6
BYLAYER
 10
6.566859377
 20
12.2242398459
 11
6.566859377
 21
12.1351697188
  0
LINE
  5
283
100
AcDbEntity
  8
0
100
AcDbLine
 62
7
  6
BYLAYER
 10
6.6445
 20
13.3369416688
 11
6.6445
 21
13.2740442453
  0
LINE
  5
284
100
AcDbEntity
  8
0
100
AcDbLine
 62
7
  6
BYLAYER
 10
6.6445
 20
13.162692618
 11
6.6445
 21
12.038783
  0
LINE
  5
285
100
AcDbEntity
  8
0
100
AcDbLine
 62
7
  6
BYLAYER
 10
7.128875
 20
13.3508852934
 11
7.128875
 21
13.2601006207
  0
LINE
  5
286
100
AcDbEntity
  8
0
100
AcDbLine
 62
7
  6
BYLAYER
 10
7.128875
 20
13.1771382736
 11
7.128875
 21
12.038783
  0
LINE
  5
287
100
AcDbEntity
  8
0
100
AcDbLine
 62
7
  6
BYLAYER
 10
7.345
 20
12.241908
 11
7.345
 21
13.366908
  0
LINE
  5
288
100
AcDbEntity
  8
0
100
AcDbLine
 62
7
  6
BYLAYER
 10
7.46875
 20
12.241908
 11
7.46875
 21
13.366908
  0
LINE
  5
289
100
AcDbEntity
  8
0
100
AcDbLine
 62
7
  6
BYLAYER
 10
15.210625
 20
4.3770735
 11
15.210625
 21
4.0645735
  0
LINE
  5
28A
100
AcDbEntity
  8
0
100
AcDbLine
 62
7
  6
BYLAYER
 10
15.241875
 20
4.0333235
 11
15.2586184191
 21
4.0147585352
  0
LINE
  5
28B
100
AcDbEntity
  8
0
100
AcDbLine
 62
7
  6
BYLAYER
 10
15.773125
 20
3.4633235
 11
15.773125
 21
3.4395735
  0
LINE
  5
28C
100
AcDbEntity
  8
0
100
AcDbLine
 62
7
  6
BYLAYER
 10
15.773125
 20
3.4395735
 11
16.0954625721
 21
3.4395735
  0
LINE
  5
28D
100
AcDbEntity
  8
0
100
AcDbLine
 62
7
  6
BYLAYER
 10
17.0132874279
 20
3.4395735
 11
17.335625
 21
3.4395735
  0
LINE
  5
28E
100
AcDbEntity
  8
0
100
AcDbLine
 62
7
  6
BYLAYER
 10
17.335625
 20
3.4633235
 11
17.023125
 21
3.4633235
  0
LINE
  5
28F
100
AcDbEntity
  8
0
100
AcDbLine
 62
7
  6
BYLAYER
 10
16.085625
 20
3.4633235
 11
15.773125
 21
3.4633235
  0
LINE
  5
290
100
AcDbEntity
  8
0
100
AcDbLine
 62
7
  6
BYLAYER
 10
15.6782565809
 20
4.4268884648
 11
15.241875
 21
4.0333235
  0
LINE
  5
291
100
AcDbEntity
  8
0
100
AcDbLine
 62
7
  6
BYLAYER
 10
15.2586184191
 20
4.0147585352
 11
15.695
 21
4.4083235
  0
LINE
  5
292
100
AcDbEntity
  8
0
100
AcDbLine
 62
7
  6
BYLAYER
 10
15.695
 20
4.4083235
 11
15.6782565809
 21
4.4268884648
  0
LINE
  5
293
100
AcDbEntity
  8
0
100
AcDbLine
 62
7
  6
BYLAYER
 10
15.7003496322
 20
4.0333235
 11
15.2792030986
 21
4.0333235
  0
LINE
  5
294
100
AcDbEntity
  8
0
100
AcDbLine
 62
7
  6
BYLAYER
 10
16.9900957254
 20
3.4627652025
 11
17.0132874279
 21
3.4395735
  0
LINE
  5
295
100
AcDbEntity
  8
0
100
AcDbLine
 62
7
  6
BYLAYER
 10
17.023125
 20
3.4633235
 11
17.0107888011
 21
3.4756596989
  0
LINE
  5
296
100
AcDbEntity
  8
0
100
AcDbLine
 62
7
  6
BYLAYER
 10
15.241875
 20
4.4083235
 11
15.6576719014
 21
4.4083235
  0
LINE
  5
297
100
AcDbEntity
  8
0
100
AcDbLine
 62
7
  6
BYLAYER
 10
15.695
 20
4.4083235
 11
15.7026540012
 21
4.4083235
  0
LINE
  5
298
100
AcDbEntity
  8
0
100
AcDbLine
 62
7
  6
BYLAYER
 10
16.0977841832
 20
3.4754826832
 11
16.085625
 21
3.4633235
  0
LINE
  5
299
100
AcDbEntity
  8
0
100
AcDbLine
 62
7
  6
BYLAYER
 10
16.0954625721
 20
3.4395735
 11
16.1190561389
 21
3.4631670668
  0
LINE
  5
29A
100
AcDbEntity
  8
0
100
AcDbLine
 62
7
  6
BYLAYER
 10
16.851875
 20
5.0570734997
 11
16.851875
 21
5.1583235
  0
LINE
  5
29B
100
AcDbEntity
  8
0
100
AcDbLine
 62
7
  6
BYLAYER
 10
17.101875
 20
5.0200980014
 11
17.101875
 21
4.8542579306
  0
LINE
  5
29C
100
AcDbEntity
  8
0
100
AcDbLine
 62
7
  6
BYLAYER
 10
17.335625
 20
3.4395735
 11
17.335625
 21
3.4633235
  0
LINE
  5
29D
100
AcDbEntity
  8
0
100
AcDbLine
 62
7
  6
BYLAYER
 10
17.789375
 20
5.0570734997
 11
16.851875
 21
5.0570734997
  0
LINE
  5
29E
100
AcDbEntity
  8
0
100
AcDbLine
 62
7
  6
BYLAYER
 10
17.789375
 20
5.1583235
 11
16.851875
 21
5.1583235
  0
LINE
  5
29F
100
AcDbEntity
  8
0
100
AcDbLine
 62
7
  6
BYLAYER
 10
17.539375
 20
5.0200980014
 11
17.539375
 21
4.4708235
  0
LINE
  5
2A0
100
AcDbEntity
  8
0
100
AcDbLine
 62
7
  6
BYLAYER
 10
17.789375
 20
5.0570734997
 11
17.789375
 21
5.1583235
  0
LINE
  5
2A1
100
AcDbEntity
  8
0
100
AcDbLine
 62
7
  6
BYLAYER
 10
15.4764986519
 20
11.4703377303
 11
15.4837433962
 21
11.4555744936
  0
LINE
  5
2A2
100
AcDbEntity
  8
0
100
AcDbLine
 62
7
  6
BYLAYER
 10
15.8984649748
 20
11.396688303
 11
15.6681997263
 21
11.396688303
  0
LINE
  5
2A3
100
AcDbEntity
  8
0
100
AcDbLine
 62
7
  6
BYLAYER
 10
15.6345575506
 20
11.4085129915
 11
15.6438348025
 21
11.4085129915
  0
LINE
  5
2A4
100
AcDbEntity
  8
0
100
AcDbLine
 62
7
  6
BYLAYER
 10
15.9228148926
 20
11.4085129915
 11
15.9511722673
 21
11.4085129915
  0
LINE
  5
2A5
100
AcDbEntity
  8
0
100
AcDbLine
 62
7
  6
BYLAYER
 10
15.6401456122
 20
11.4141713433
 11
15.5448200288
 21
11.6084244584
  0
LINE
  5
2A6
100
AcDbEntity
  8
0
100
AcDbLine
 62
7
  6
BYLAYER
 10
15.9511722673
 20
11.4085129915
 11
15.9608883767
 21
11.4100883951
  0
LINE
  5
2A7
100
AcDbEntity
  8
0
100
AcDbLine
 62
7
  6
BYLAYER
 10
15.4837433962
 20
11.4555744936
 11
15.6198278971
 21
11.4555744936
  0
LINE
  5
2A8
100
AcDbEntity
  8
0
100
AcDbLine
 62
7
  6
BYLAYER
 10
15.9597699412
 20
11.4555744936
 11
16.7214191069
 21
11.4555744936
  0
LINE
  5
2A9
100
AcDbEntity
  8
0
100
AcDbLine
 62
7
  6
BYLAYER
 10
15.4764986519
 20
11.4703377303
 11
15.6125831528
 21
11.4703377303
  0
LINE
  5
2AA
100
AcDbEntity
  8
0
100
AcDbLine
 62
7
  6
BYLAYER
 10
15.9594069352
 20
11.4703377303
 11
16.7141743626
 21
11.4703377303
  0
LINE
  5
2AB
100
AcDbEntity
  8
0
100
AcDbLine
 62
7
  6
BYLAYER
 10
14.7970544126
 20
11.6938064294
 11
15.5622967559
 21
11.6938064294
  0
LINE
  5
2AC
100
AcDbEntity
  8
0
100
AcDbLine
 62
7
  6
BYLAYER
 10
16.0133325394
 20
11.6938064294
 11
16.8283680854
 21
11.6938064294
  0
LINE
  5
2AD
100
AcDbEntity
  8
0
100
AcDbLine
 62
7
  6
BYLAYER
 10
16.9032042911
 20
11.7582595544
 11
16.8283680854
 21
11.7582595544
  0
LINE
  5
2AE
100
AcDbEntity
  8
0
100
AcDbLine
 62
7
  6
BYLAYER
 10
15.620137044
 20
11.9949863319
 11
15.6227337328
 21
11.8893805583
  0
LINE
  5
2AF
100
AcDbEntity
  8
0
100
AcDbLine
 62
7
  6
BYLAYER
 10
15.6341163155
 20
11.4264577582
 11
15.6345575506
 21
11.4085129915
  0
LINE
  5
2B0
100
AcDbEntity
  8
0
100
AcDbLine
 62
7
  6
BYLAYER
 10
17.0205901852
 20
11.8696303078
 11
17.4467432423
 21
11.881852092
  0
LINE
  5
2B1
100
AcDbEntity
  8
0
100
AcDbLine
 62
7
  6
BYLAYER
 10
17.0176173365
 20
11.8012283044
 11
16.9427811307
 21
11.8012283044
  0
LINE
  5
2B2
100
AcDbEntity
  8
0
100
AcDbLine
 62
7
  6
BYLAYER
 10
15.9464678701
 20
11.9965617355
 11
15.9367517607
 21
11.9949863319
  0
LINE
  5
2B3
100
AcDbEntity
  8
02___PRT_ALL_AXES
100
AcDbLine
 62
7
  6
BYLAYER
 10
18.5244492941
 20
12.3776221849
 11
18.526509817
 21
12.3779296158
  0
LINE
  5
2B4
100
AcDbEntity
  8
0
100
AcDbLine
 62
7
  6
BYLAYER
 10
15.6639920119
 20
11.9673216314
 11
15.8942572604
 21
11.9673216314
  0
LINE
  5
2B5
100
AcDbEntity
  8
0
100
AcDbLine
 62
7
  6
BYLAYER
 10
18.2349145727
 20
11.9906814294
 11
18.3488958707
 21
11.9906814294
  0
LINE
  5
2B6
100
AcDbEntity
  8
0
100
AcDbLine
 62
7
  6
BYLAYER
 10
15.620137044
 20
11.9949863319
 11
15.9367517607
 21
11.9949863319
  0
LINE
  5
2B7
100
AcDbEntity
  8
0
100
AcDbLine
 62
7
  6
BYLAYER
 10
15.6298531534
 20
11.9965617355
 11
15.9464678701
 21
11.9965617355
  0
LINE
  5
2B8
100
AcDbEntity
  8
0
100
AcDbLine
 62
7
  6
BYLAYER
 10
15.678039615
 20
12.0127796918
 11
15.9083048635
 21
12.0127796918
  0
LINE
  5
2B9
100
AcDbEntity
  8
0
100
AcDbLine
 62
7
  6
BYLAYER
 10
17.9000190383
 20
11.725849213
 11
17.9341031974
 21
11.7193059682
  0
LINE
  5
2BA
100
AcDbEntity
  8
0
100
AcDbLine
 62
7
  6
BYLAYER
 10
15.9241854392
 20
11.9207542447
 11
15.9356356665
 21
11.4550803781
  0
LINE
  5
2BB
100
AcDbEntity
  8
0
100
AcDbLine
 62
7
  6
BYLAYER
 10
15.9367517607
 20
11.9949863319
 11
15.9511722673
 21
11.4085129915
  0
LINE
  5
2BC
100
AcDbEntity
  8
0
100
AcDbLine
 62
7
  6
BYLAYER
 10
15.9608883767
 20
11.4100883951
 11
15.9464678701
 21
11.9965617355
  0
LINE
  5
2BD
100
AcDbEntity
  8
0
100
AcDbLine
 62
7
  6
BYLAYER
 10
15.5455557029
 20
11.6938064294
 11
15.4764986519
 21
11.4703377303
  0
LINE
  5
2BE
100
AcDbEntity
  8
0
100
AcDbLine
 62
7
  6
BYLAYER
 10
15.6568679637
 20
11.9998389699
 11
15.6558552216
 21
11.9965617355
  0
LINE
  5
2BF
100
AcDbEntity
  8
0
100
AcDbLine
 62
7
  6
BYLAYER
 10
15.6392639784
 20
11.9428724526
 11
15.5430172416
 21
11.6314178984
  0
LINE
  5
2C0
100
AcDbEntity
  8
0
100
AcDbLine
 62
7
  6
BYLAYER
 10
15.6298531534
 20
11.9965617355
 11
15.620137044
 21
11.9949863319
  0
LINE
  5
2C1
100
AcDbEntity
  8
02___PRT_ALL_AXES
100
AcDbLine
 62
7
  6
BYLAYER
 10
18.5243956116
 20
12.4713720835
 11
18.5223350888
 21
12.4710646527
  0
LINE
  5
2C2
100
AcDbEntity
  8
02___PRT_ALL_AXES
100
AcDbLine
 62
7
  6
BYLAYER
 10
18.1733961298
 20
12.6349907753
 11
18.1754566526
 21
12.6352982062
  0
LINE
  5
2C3
100
AcDbEntity
  8
0
100
AcDbLine
 62
7
  6
BYLAYER
 10
16.7141743626
 20
11.4703377303
 11
16.7214191069
 21
11.4555744936
  0
LINE
  5
2C4
100
AcDbEntity
  8
0
100
AcDbLine
 62
7
  6
BYLAYER
 10
16.0421725983
 20
11.7871328941
 11
15.9582916879
 21
11.5156941687
  0
LINE
  5
2C5
100
AcDbEntity
  8
0
100
AcDbLine
 62
7
  6
BYLAYER
 10
15.9327255667
 20
11.4329621703
 11
15.9283218762
 21
11.4187118226
  0
LINE
  5
2C6
100
AcDbEntity
  8
02___PRT_ALL_AXES
100
AcDbLine
 62
7
  6
BYLAYER
 10
18.1733424473
 20
12.728740674
 11
18.1712819245
 21
12.7284332431
  0
LINE
  5
2C7
100
AcDbEntity
  8
0
100
AcDbLine
 62
7
  6
BYLAYER
 10
17.921249104
 20
13.3845892493
 11
17.9341031974
 21
13.3870568906
  0
LINE
  5
2C8
100
AcDbEntity
  8
0
100
AcDbLine
 62
7
  6
BYLAYER
 10
17.9529966945
 20
13.3897161493
 11
17.9341031974
 21
13.3870568906
  0
LINE
  5
2C9
100
AcDbEntity
  8
0
100
AcDbLine
 62
7
  6
BYLAYER
 10
18.2349145727
 20
13.1156814294
 11
18.3488958707
 21
13.1156814294
  0
LINE
  5
2CA
100
AcDbEntity
  8
0
100
AcDbLine
 62
7
  6
BYLAYER
 10
17.0205901852
 20
13.2367325511
 11
17.446749129
 21
13.224510598
  0
LINE
  5
2CB
100
AcDbEntity
  8
0
100
AcDbLine
 62
7
  6
BYLAYER
 10
16.7832314136
 20
11.6938064294
 11
16.7141743626
 21
11.4703377303
  0
LINE
  5
2CC
100
AcDbEntity
  8
0
100
AcDbLine
 62
7
  6
BYLAYER
 10
16.7214191069
 20
11.4555744936
 11
16.7950383432
 21
11.6938064294
  0
LINE
  5
2CD
100
AcDbEntity
  8
0
100
AcDbLine
 62
7
  6
BYLAYER
 10
17.0176173365
 20
13.3051345544
 11
16.9427811307
 21
13.3051345544
  0
LINE
  5
2CE
100
AcDbEntity
  8
0
100
AcDbLine
 62
7
  6
BYLAYER
 10
16.9032042911
 20
13.3481033044
 11
16.8283680854
 21
13.3481033044
  0
LINE
  5
2CF
100
AcDbEntity
  8
0
100
AcDbLine
 62
7
  6
BYLAYER
 10
14.7970544126
 20
13.4125564294
 11
16.8283680854
 21
13.4125564294
  0
LINE
  5
2D0
100
AcDbEntity
  8
0
100
AcDbLine
 62
7
  6
BYLAYER
 10
16.9598028911
 20
11.7719602587
 11
16.9555896397
 21
11.7583261721
  0
LINE
  5
2D1
100
AcDbEntity
  8
0
100
AcDbLine
 62
7
  6
BYLAYER
 10
17.0470243386
 20
11.8802695345
 11
17.1778321109
 21
12.3035636411
  0
LINE
  5
2D2
100
AcDbEntity
  8
0
100
AcDbLine
 62
7
  6
BYLAYER
 10
17.2807107633
 20
13.5296606244
 11
17.3115962524
 21
13.4667226149
  0
LINE
  5
2D3
100
AcDbEntity
  8
02__ASM_ALL_AXES
100
AcDbLine
 62
7
  6
BYLAYER
 10
18.2419500312
 20
12.9330565334
 11
18.2416887731
 21
12.9325706097
  0
LINE
  5
2D4
100
AcDbEntity
  8
02__ASM_ALL_AXES
100
AcDbLine
 62
7
  6
BYLAYER
 10
18.1832912498
 20
12.3560032474
 11
18.1836830593
 21
12.3538476175
  0
LINE
  5
2D5
100
AcDbEntity
  8
02__ASM_ALL_AXES
100
AcDbLine
 62
7
  6
BYLAYER
 10
18.1805774131
 20
12.3717884369
 11
18.1812937858
 21
12.3674658057
  0
LINE
  5
2D6
100
AcDbEntity
  8
02__ASM_ALL_AXES
100
AcDbLine
 62
7
  6
BYLAYER
 10
18.1692497241
 20
12.63631497
 11
18.1691777237
 21
12.6352823592
  0
LINE
  5
2D7
100
AcDbEntity
  8
0
100
AcDbLine
 62
7
  6
BYLAYER
 10
18.0604024862
 20
13.5013910848
 11
18.1076175584
 21
13.4051768836
  0
LINE
  5
2D8
100
AcDbEntity
  8
0
100
AcDbLine
 62
7
  6
BYLAYER
 10
18.1223341884
 20
13.942669414
 11
18.1532196775
 21
13.8797314045
  0
LINE
  5
2D9
100
AcDbEntity
  8
02__ASM_ALL_AXES
100
AcDbLine
 62
7
  6
BYLAYER
 10
18.5182940052
 20
12.3785418553
 11
18.5185471113
 21
12.3801696094
  0
ARC
  5
2DA
100
AcDbEntity
  8
0
100
AcDbCircle
 62
7
  6
BYLAYER
 10
7.4017106095
 20
3.6274487964
 40
0.2728356095
100
AcDbArc
 50
142.7404492055
 51
180.0
  0
ARC
  5
2DB
100
AcDbEntity
  8
0
100
AcDbCircle
 62
7
  6
BYLAYER
 10
7.4017106095
 20
4.8111462036
 40
0.2728356095
100
AcDbArc
 50
180.0
 51
217.2595507945
  0
ARC
  5
2DC
100
AcDbEntity
  8
0
100
AcDbCircle
 62
7
  6
BYLAYER
 10
6.875
 20
4.8020030529
 40
0.21875
100
AcDbArc
 50
92.5540465914
 51
107.5279443791
  0
ARC
  5
2DD
100
AcDbEntity
  8
0
100
AcDbCircle
 62
7
  6
BYLAYER
 10
6.875
 20
3.5636725
 40
0.21875
100
AcDbArc
 50
212.702612467
 51
307.297387533
  0
ARC
  5
2DE
100
AcDbEntity
  8
0
100
AcDbCircle
 62
7
  6
BYLAYER
 10
7.0572088588
 20
4.9849225
 40
0.0716661412
100
AcDbArc
 50
0.0
 51
100.0
  0
ARC
  5
2DF
100
AcDbEntity
  8
0
100
AcDbCircle
 62
7
  6
BYLAYER
 10
7.0572088588
 20
3.4536725
 40
0.0716661412
100
AcDbArc
 50
260.0
 51
360.0
  0
ARC
  5
2E0
100
AcDbEntity
  8
0
100
AcDbCircle
 62
7
  6
BYLAYER
 10
3.59375
 20
3.486875625
 40
0.0625
100
AcDbArc
 50
180.0
 51
196.3348227807
  0
ARC
  5
2E1
100
AcDbEntity
  8
0
100
AcDbCircle
 62
7
  6
BYLAYER
 10
3.59375
 20
4.951719375
 40
0.0625
100
AcDbArc
 50
90.0
 51
180.0
  0
ARC
  5
2E2
100
AcDbEntity
  8
0
100
AcDbCircle
 62
7
  6
BYLAYER
 10
7.13125
 20
5.0185720011
 40
0.0375
100
AcDbArc
 50
99.5940682269
 51
142.8656582291
  0
ARC
  5
2E3
100
AcDbEntity
  8
0
100
AcDbCircle
 62
7
  6
BYLAYER
 10
6.61875
 20
5.0185720014
 40
0.0375
100
AcDbArc
 50
0.0
 51
80.4059292421
  0
ARC
  5
2E4
100
AcDbEntity
  8
0
100
AcDbCircle
 62
7
  6
BYLAYER
 10
7.2094323588
 20
4.6648838332
 40
0.03125
100
AcDbArc
 50
217.2595507945
 51
255.0
  0
ARC
  5
2E5
100
AcDbEntity
  8
0
100
AcDbCircle
 62
7
  6
BYLAYER
 10
7.2094323588
 20
3.7737111668
 40
0.03125
100
AcDbArc
 50
105.0
 51
142.7404492055
  0
ARC
  5
2E6
100
AcDbEntity
  8
0
100
AcDbCircle
 62
7
  6
BYLAYER
 10
4.8515
 20
4.3755475
 40
0.03125
100
AcDbArc
 50
90.0
 51
180.0
  0
ARC
  5
2E7
100
AcDbEntity
  8
0
100
AcDbCircle
 62
7
  6
BYLAYER
 10
5.1015
 20
4.3755475
 40
0.03125
100
AcDbArc
 50
0.0
 51
90.0
  0
ARC
  5
2E8
100
AcDbEntity
  8
0
100
AcDbCircle
 62
7
  6
BYLAYER
 10
4.8515
 20
4.0630475
 40
0.03125
100
AcDbArc
 50
180.0
 51
270.0
  0
ARC
  5
2E9
100
AcDbEntity
  8
0
100
AcDbCircle
 62
7
  6
BYLAYER
 10
5.1015
 20
4.0630475
 40
0.03125
100
AcDbArc
 50
270.0
 51
360.0
  0
CIRCLE
  5
2EA
100
AcDbEntity
  8
0
100
AcDbCircle
 62
7
  6
BYLAYER
 10
6.875
 20
13.570658
 40
0.46875
  0
CIRCLE
  5
2EB
100
AcDbEntity
  8
02__ASM_ALL_AXES
100
AcDbCircle
 62
7
  6
BYLAYER
 10
6.875
 20
13.570658
 40
0.375
  0
ARC
  5
2EC
100
AcDbEntity
  8
0
100
AcDbCircle
 62
7
  6
BYLAYER
 10
7.4017106095
 20
12.2125592964
 40
0.2728356095
100
AcDbArc
 50
142.7404492055
 51
180.0
  0
ARC
  5
2ED
100
AcDbEntity
  8
0
100
AcDbCircle
 62
7
  6
BYLAYER
 10
7.4017106095
 20
13.3962567036
 40
0.2728356095
100
AcDbArc
 50
189.4029393055
 51
208.8613221783
  0
ARC
  5
2EE
100
AcDbEntity
  8
0
100
AcDbCircle
 62
7
  6
BYLAYER
 10
6.875
 20
12.148783
 40
0.21875
100
AcDbArc
 50
212.702612467
 51
307.297387533
  0
CIRCLE
  5
2EF
100
AcDbEntity
  8
0
100
AcDbCircle
 62
7
  6
BYLAYER
 10
6.875
 20
13.570658
 40
0.1875
  0
ARC
  5
2F0
100
AcDbEntity
  8
0
100
AcDbCircle
 62
7
  6
BYLAYER
 10
7.0572088588
 20
12.038783
 40
0.0716661412
100
AcDbArc
 50
260.0
 51
360.0
  0
ARC
  5
2F1
100
AcDbEntity
  8
0
100
AcDbCircle
 62
7
  6
BYLAYER
 10
3.59375
 20
13.536829875
 40
0.0625
100
AcDbArc
 50
90.0
 51
180.0
  0
ARC
  5
2F2
100
AcDbEntity
  8
0
100
AcDbCircle
 62
7
  6
BYLAYER
 10
3.59375
 20
12.071986125
 40
0.0625
100
AcDbArc
 50
180.0
 51
270.0
  0
CIRCLE
  5
2F3
100
AcDbEntity
  8
02___PRT_ALL_AXES
100
AcDbCircle
 62
7
  6
BYLAYER
 10
7.1401650429
 20
13.3054929571
 40
0.046875
  0
CIRCLE
  5
2F4
100
AcDbEntity
  8
02___PRT_ALL_AXES
100
AcDbCircle
 62
7
  6
BYLAYER
 10
6.6098349571
 20
13.3054929571
 40
0.046875
  0
CIRCLE
  5
2F5
100
AcDbEntity
  8
02___PRT_ALL_AXES
100
AcDbCircle
 62
7
  6
BYLAYER
 10
6.6098349571
 20
13.8358230429
 40
0.046875
  0
CIRCLE
  5
2F6
100
AcDbEntity
  8
02___PRT_ALL_AXES
100
AcDbCircle
 62
7
  6
BYLAYER
 10
7.1401650429
 20
13.8358230429
 40
0.046875
  0
ARC
  5
2F7
100
AcDbEntity
  8
0
100
AcDbCircle
 62
7
  6
BYLAYER
 10
7.2094323588
 20
12.3588216668
 40
0.03125
100
AcDbArc
 50
105.0
 51
142.7404492055
  0
ARC
  5
2F8
100
AcDbEntity
  8
0
100
AcDbCircle
 62
7
  6
BYLAYER
 10
7.2094323588
 20
13.2499943332
 40
0.03125
100
AcDbArc
 50
233.4871534087
 51
255.0
  0
ARC
  5
2F9
100
AcDbEntity
  8
0
100
AcDbCircle
 62
7
  6
BYLAYER
 10
5.1015
 20
11.491908
 40
0.03125
100
AcDbArc
 50
270.0
 51
360.0
  0
ARC
  5
2FA
100
AcDbEntity
  8
0
100
AcDbCircle
 62
7
  6
BYLAYER
 10
4.8515
 20
11.491908
 40
0.03125
100
AcDbArc
 50
180.0
 51
270.0
  0
CIRCLE
  5
2FB
100
AcDbEntity
  8
02___PRT_ALL_AXES
100
AcDbCircle
 62
7
  6
BYLAYER
 10
16.1213064691
 20
4.4002063589
 40
0.046875
  0
CIRCLE
  5
2FC
100
AcDbEntity
  8
02___PRT_ALL_AXES
100
AcDbCircle
 62
7
  6
BYLAYER
 10
16.1213064691
 20
4.0414406411
 40
0.046875
  0
CIRCLE
  5
2FD
100
AcDbEntity
  8
02___PRT_ALL_AXES
100
AcDbCircle
 62
7
  6
BYLAYER
 10
16.3749921411
 20
3.7877549691
 40
0.046875
  0
ARC
  5
2FE
100
AcDbEntity
  8
0
100
AcDbCircle
 62
7
  6
BYLAYER
 10
15.241875
 20
4.3770735
 40
0.03125
100
AcDbArc
 50
90.0
 51
180.0
  0
ARC
  5
2FF
100
AcDbEntity
  8
0
100
AcDbCircle
 62
7
  6
BYLAYER
 10
15.241875
 20
4.0645735
 40
0.03125
100
AcDbArc
 50
180.0
 51
270.0
  0
ARC
  5
300
100
AcDbEntity
  8
0
100
AcDbCircle
 62
7
  6
BYLAYER
 10
16.3272016243
 20
4.4708235
 40
1.2121733757
100
AcDbArc
 50
312.2612198705
 51
360.0
  0
CIRCLE
  5
301
100
AcDbEntity
  8
02___PRT_ALL_AXES
100
AcDbCircle
 62
7
  6
BYLAYER
 10
16.3749921411
 20
4.6538920309
 40
0.046875
  0
ARC
  5
302
100
AcDbEntity
  8
0
100
AcDbCircle
 62
7
  6
BYLAYER
 10
16.554375
 20
4.2208235
 40
0.874375
100
AcDbArc
 50
180.0
 51
312.2612198705
  0
ARC
  5
303
100
AcDbEntity
  8
0
100
AcDbCircle
 62
7
  6
BYLAYER
 10
16.554375
 20
4.2208235
 40
0.859375
100
AcDbArc
 50
50.4058037922
 51
143.9678801809
  0
ARC
  5
304
100
AcDbEntity
  8
0
100
AcDbCircle
 62
7
  6
BYLAYER
 10
16.554375
 20
4.2208235
 40
0.8372911412
100
AcDbArc
 50
39.5932651517
 51
353.2682524644
  0
ARC
  5
305
100
AcDbEntity
  8
0
100
AcDbCircle
 62
7
  6
BYLAYER
 10
16.4814555529
 20
4.2208235
 40
0.8014555529
100
AcDbArc
 50
117.0121335321
 51
180.0
  0
CIRCLE
  5
306
100
AcDbEntity
  8
0
100
AcDbCircle
 62
7
  6
BYLAYER
 10
16.554375
 20
4.2208235
 40
0.5625
  0
CIRCLE
  5
307
100
AcDbEntity
  8
02__ASM_ALL_AXES
100
AcDbCircle
 62
7
  6
BYLAYER
 10
16.554375
 20
4.2208235
 40
0.46875
  0
CIRCLE
  5
308
100
AcDbEntity
  8
0
100
AcDbCircle
 62
7
  6
BYLAYER
 10
16.554375
 20
4.2208235
 40
0.25
  0
CIRCLE
  5
309
100
AcDbEntity
  8
02___PRT_ALL_AXES
100
AcDbCircle
 62
7
  6
BYLAYER
 10
16.7337578589
 20
3.7877549691
 40
0.046875
  0
CIRCLE
  5
30A
100
AcDbEntity
  8
02___PRT_ALL_AXES
100
AcDbCircle
 62
7
  6
BYLAYER
 10
16.9874435309
 20
4.0414406411
 40
0.046875
  0
CIRCLE
  5
30B
100
AcDbEntity
  8
02___PRT_ALL_AXES
100
AcDbCircle
 62
7
  6
BYLAYER
 10
16.9874435309
 20
4.4002063589
 40
0.046875
  0
CIRCLE
  5
30C
100
AcDbEntity
  8
02___PRT_ALL_AXES
100
AcDbCircle
 62
7
  6
BYLAYER
 10
16.7337578589
 20
4.6538920309
 40
0.046875
  0
ARC
  5
30D
100
AcDbEntity
  8
0
100
AcDbCircle
 62
7
  6
BYLAYER
 10
17.576875
 20
5.0200980011
 40
0.0375
100
AcDbArc
 50
99.5940682269
 51
180.0
  0
ARC
  5
30E
100
AcDbEntity
  8
0
100
AcDbCircle
 62
7
  6
BYLAYER
 10
17.064375
 20
5.0200980014
 40
0.0375
100
AcDbArc
 50
0.0
 51
80.4059292421
  0
ARC
  5
30F
100
AcDbEntity
  8
0
100
AcDbCircle
 62
7
  6
BYLAYER
 10
18.1576716747
 20
12.1550359552
 40
1.2520770345
100
AcDbArc
 50
100.8841801295
 51
101.7561954616
  0
ARC
  5
310
100
AcDbEntity
  8
0
100
AcDbCircle
 62
7
  6
BYLAYER
 10
18.1121205944
 20
12.2695633356
 40
0.7409181292
100
AcDbArc
 50
204.0068606686
 51
206.1310407271
  0
ARC
  5
311
100
AcDbEntity
  8
0
100
AcDbCircle
 62
7
  6
BYLAYER
 10
17.5709394454
 20
14.0043035533
 40
0.6364189952
100
AcDbArc
 50
298.1592425862
 51
306.5274392815
  0
ARC
  5
312
100
AcDbEntity
  8
0
100
AcDbCircle
 62
7
  6
BYLAYER
 10
17.6183177608
 20
13.7849397818
 40
0.4788976644
100
AcDbArc
 50
263.7823178176
 51
270.0743706512
  0
ARC
  5
313
100
AcDbEntity
  8
0
100
AcDbCircle
 62
7
  6
BYLAYER
 10
17.9070263537
 20
13.0963658375
 40
0.3129691676
100
AcDbArc
 50
47.2457711558
 51
47.6544644382
  0
ARC
  5
314
100
AcDbEntity
  8
0
100
AcDbCircle
 62
7
  6
BYLAYER
 10
15.911268434
 20
11.974198355
 40
0.036890334
100
AcDbArc
 50
37.3453297225
 51
43.0812711255
  0
ARC
  5
315
100
AcDbEntity
  8
0
100
AcDbCircle
 62
7
  6
BYLAYER
 10
15.5728977235
 20
11.6221931498
 40
0.0312721842
100
AcDbArc
 50
162.8318916266
 51
206.1057913053
  0
ARC
  5
316
100
AcDbEntity
  8
0
100
AcDbCircle
 62
7
  6
BYLAYER
 10
15.8984648639
 20
11.4279386031
 40
0.0312502896
100
AcDbArc
 50
270.0002034834
 51
342.8242883588
  0
ARC
  5
317
100
AcDbEntity
  8
0
100
AcDbCircle
 62
7
  6
BYLAYER
 10
15.6681993799
 20
11.4279379728
 40
0.0312495435
100
AcDbArc
 50
206.1382496207
 51
269.9962773674
  0
SPLINE
  5
318
100
AcDbEntity
  8
0
100
AcDbSpline
 62
7
  6
BYLAYER
 70
0
 71
3
 72
26
 73
22
 74
0
 42
0.0000001
 43
0.0000001
 44
0.0000000001
 40
0.0
 40
0.0
 40
0.0
 40
0.0
 40
0.0209317658
 40
0.0370077981
 40
0.0513740609
 40
0.0655181399
 40
0.0802933067
 40
0.0962019356
 40
0.1135351782
 40
0.1324567051
 40
0.1530525386
 40
0.1753601424
 40
0.2251049745
 40
0.2815231101
 40
0.3442409432
 40
0.4127660259
 40
0.4865220764
 40
0.5648686732
 40
0.6471154115
 40
0.820332272
 40
1.0
 40
1.0
 40
1.0
 40
1.0
 10
6.8652530557
 20
5.020535929
 30
0.0
 10
6.8712045612
 20
5.0208012673
 30
0.0
 10
6.8818061091
 20
5.0206144954
 30
0.0
 10
6.8961588471
 20
5.0172631419
 30
0.0
 10
6.9076272414
 20
5.0115857335
 30
0.0
 10
6.9173239515
 20
5.0038618333
 30
0.0
 10
6.9257941046
 20
4.9942526483
 30
0.0
 10
6.9333622958
 20
4.9828346116
 30
0.0
 10
6.9402277413
 20
4.9696477029
 30
0.0
 10
6.9465163171
 20
4.9547247029
 30
0.0
 10
6.9523132499
 20
4.9381011612
 30
0.0
 10
6.9597344321
 20
4.9127893487
 30
0.0
 10
6.9678442212
 20
4.8771038109
 30
0.0
 10
6.9759960694
 20
4.8297216818
 30
0.0
 10
6.9830288212
 20
4.7767657986
 30
0.0
 10
6.9890526741
 20
4.7187267939
 30
0.0
 10
6.9941446254
 20
4.65613628
 30
0.0
 10
6.9983659457
 20
4.589568601
 30
0.0
 10
7.0029707164
 20
4.4946713392
 30
0.0
 10
7.0066111343
 20
4.3708701877
 30
0.0
 10
7.0075520282
 20
4.270432968
 30
0.0
 10
7.0075520282
 20
4.2192975
 30
0.0
  0
SPLINE
  5
319
100
AcDbEntity
  8
0
100
AcDbSpline
 62
7
  6
BYLAYER
 70
0
 71
3
 72
26
 73
22
 74
0
 42
0.0000001
 43
0.0000001
 44
0.0000000001
 40
0.0
 40
0.0
 40
0.0
 40
0.0
 40
0.175498452
 40
0.3449516423
 40
0.4256013022
 40
0.5026176212
 40
0.5753735715
 40
0.643296523
 40
0.7058825393
 40
0.7627156765
 40
0.8135003222
 40
0.8365827372
 40
0.8581326375
 40
0.87818849
 40
0.8968281563
 40
0.9141898764
 40
0.9305083084
 40
0.9461795839
 40
0.9618853294
 40
0.9788825601
 40
1.0
 40
1.0
 40
1.0
 40
1.0
 10
6.6909249051
 20
4.2192975
 30
0.0
 10
6.6909249051
 20
4.2675646649
 30
0.0
 10
6.6915827721
 20
4.3624375243
 30
0.0
 10
6.6941563799
 20
4.4794682924
 30
0.0
 10
6.6974738465
 20
4.5693760068
 30
0.0
 10
6.700560152
 20
4.6326753073
 30
0.0
 10
6.7043418507
 20
4.6924308995
 30
0.0
 10
6.7088938385
 20
4.7481528159
 30
0.0
 10
6.7143086152
 20
4.7993989098
 30
0.0
 10
6.7207108976
 20
4.8457789574
 30
0.0
 10
6.7271913001
 20
4.8811571858
 30
0.0
 10
6.7332037892
 20
4.9067072151
 30
0.0
 10
6.7379739218
 20
4.9238530298
 30
0.0
 10
6.7432056184
 20
4.9395835136
 30
0.0
 10
6.7489792144
 20
4.953892459
 30
0.0
 10
6.7554090938
 20
4.9667863804
 30
0.0
 10
6.7626696551
 20
4.9782880626
 30
0.0
 10
6.7710454756
 20
4.9884389872
 30
0.0
 10
6.7810435588
 20
4.9973107725
 30
0.0
 10
6.7937440226
 20
5.0050636003
 30
0.0
 10
6.8035805508
 20
5.0088475003
 30
0.0
 10
6.8091188451
 20
5.0105965279
 30
0.0
  0
LINE
  5
31A
100
AcDbEntity
  8
0
100
AcDbLine
 62
7
  6
BYLAYER
 10
6.1010156253
 20
12.210088197
 11
6.566859377
 21
12.2242398459
  0
LINE
  5
31B
100
AcDbEntity
  8
0
100
AcDbLine
 62
7
  6
BYLAYER
 10
6.1010156253
 20
13.398727803
 11
6.4436418745
 21
13.3883274608
  0
SPLINE
  5
31C
100
AcDbEntity
  8
0
100
AcDbSpline
 62
7
  6
BYLAYER
 70
0
 71
3
 72
66
 73
62
 74
0
 42
0.0000001
 43
0.0000001
 44
0.0000000001
 40
0.0
 40
0.0
 40
0.0
 40
0.0
 40
0.0097572772
 40
0.038627976
 40
0.059891831
 40
0.0854336832
 40
0.1149950246
 40
0.1482784654
 40
0.1849512721
 40
0.22464947
 40
0.2455117198
 40
0.2669813399
 40
0.2890057887
 40
0.3115314239
 40
0.3345036011
 40
0.3578667217
 40
0.3815641058
 40
0.3935205633
 40
0.4055387495
 40
0.4176108992
 40
0.4297286412
 40
0.4418821675
 40
0.4479701039
 40
0.4540625185
 40
0.4601569059
 40
0.4662493466
 40
0.4692965423
 40
0.4723443859
 40
0.4753916785
 40
0.4784423953
 40
0.481498603
 40
0.4845584951
 40
0.4876406667
 40
0.49072058
 40
0.4938079605
 40
0.4968963251
 40
0.5030775892
 40
0.50926371
 40
0.5154501751
 40
0.5216347038
 40
0.5278155166
 40
0.54015928
 40
0.5524728542
 40
0.5647474998
 40
0.576975228
 40
0.5891484407
 40
0.601259773
 40
0.6252676782
 40
0.6489432085
 40
0.6722314219
 40
0.695078688
 40
0.7174326427
 40
0.7392422813
 40
0.7810309902
 40
0.8200657038
 40
0.8559945803
 40
0.8884947422
 40
0.9172746703
 40
0.962678982
 40
0.990585632
 40
1.0
 40
1.0
 40
1.0
 40
1.0
 10
6.6909249051
 20
12.0305970367
 30
0.0
 10
6.6913110512
 20
12.035656512
 30
0.0
 10
6.692856409
 20
12.0556851588
 30
0.0
 10
6.6953567834
 20
12.0867310514
 30
0.0
 10
6.6986976282
 20
12.1259439858
 30
0.0
 10
6.7022507753
 20
12.1654989625
 30
0.0
 10
6.7066291008
 20
12.2112550283
 30
0.0
 10
6.7119339407
 20
12.2627363308
 30
0.0
 10
6.7182975336
 20
12.3194059767
 30
0.0
 10
6.7245224921
 20
12.3695884034
 30
0.0
 10
6.7302476472
 20
12.4118619801
 30
0.0
 10
6.735032035
 20
12.4449867388
 30
0.0
 10
6.7402923708
 20
12.478915112
 30
0.0
 10
6.7461029896
 20
12.5135464929
 30
0.0
 10
6.752564921
 20
12.5487710271
 30
0.0
 10
6.75982387
 20
12.5844628019
 30
0.0
 10
6.7666974009
 20
12.6143799182
 30
0.0
 10
6.7728895609
 20
12.638387176
 30
0.0
 10
6.7779698755
 20
12.6564333606
 30
0.0
 10
6.7835741372
 20
12.6744132305
 30
0.0
 10
6.7898570829
 20
12.692243384
 30
0.0
 10
6.7958606733
 20
12.7068589415
 30
0.0
 10
6.8013529203
 20
12.7182639193
 30
0.0
 10
6.8059201588
 20
12.726605189
 30
0.0
 10
6.8110715508
 20
12.7346051395
 30
0.0
 10
6.8160436028
 20
12.7408071365
 30
0.0
 10
6.8205967445
 20
12.7452300947
 30
0.0
 10
6.8243652466
 20
12.7481480255
 30
0.0
 10
6.8285244816
 20
12.7505047181
 30
0.0
 10
6.8330903967
 20
12.7519785313
 30
0.0
 10
6.8378917953
 20
12.752377101
 30
0.0
 10
6.8426471699
 20
12.7515190959
 30
0.0
 10
6.8471015133
 20
12.7496645763
 30
0.0
 10
6.8511733753
 20
12.7470691491
 30
0.0
 10
6.8548641013
 20
12.7439642455
 30
0.0
 10
6.8593763261
 20
12.739378951
 30
0.0
 10
6.8643526022
 20
12.7330384907
 30
0.0
 10
6.8695801621
 20
12.7249196525
 30
0.0
 10
6.8742659855
 20
12.7164769955
 30
0.0
 10
6.8785361578
 20
12.7078227183
 30
0.0
 10
6.8837871718
 20
12.6960923415
 30
0.0
 10
6.8896841337
 20
12.6811706818
 30
0.0
 10
6.8960111904
 20
12.6630330627
 30
0.0
 10
6.9017655161
 20
12.6447699539
 30
0.0
 10
6.9070660839
 20
12.6264470424
 30
0.0
 10
6.9119944691
 20
12.6081088806
 30
0.0
 10
6.918129135
 20
12.5837547464
 30
0.0
 10
6.9251265916
 20
12.5534533222
 30
0.0
 10
6.9327197997
 20
12.5173329131
 30
0.0
 10
6.9396365194
 20
12.4816920163
 30
0.0
 10
6.9459824747
 20
12.4466437702
 30
0.0
 10
6.9518337493
 20
12.4122895165
 30
0.0
 10
6.9589502329
 20
12.3681604138
 30
0.0
 10
6.9668610563
 20
12.3153746827
 30
0.0
 10
6.9751751279
 20
12.2552295891
 30
0.0
 10
6.9823325588
 20
12.1998035658
 30
0.0
 10
6.9884502427
 20
12.1496220254
 30
0.0
 10
6.9948500862
 20
12.0945118129
 30
0.0
 10
7.0006415733
 20
12.0417365718
 30
0.0
 10
7.005099951
 20
11.9989474813
 30
0.0
 10
7.0070606053
 20
11.9796382718
 30
0.0
 10
7.0075520282
 20
11.974767132
 30
0.0
  0
SPLINE
  5
31D
100
AcDbEntity
  8
0
100
AcDbSpline
 62
7
  6
BYLAYER
 70
0
 71
3
 72
16
 73
12
 74
0
 42
0.0000001
 43
0.0000001
 44
0.0000000001
 40
0.0
 40
0.0
 40
0.0
 40
0.0
 40
0.0392570931
 40
0.0677122477
 40
0.1033369745
 40
0.1966185181
 40
0.3181923485
 40
0.4646093696
 40
0.6311611999
 40
0.8120970184
 40
1.0
 40
1.0
 40
1.0
 40
1.0
 10
4.82025
 20
11.9593569198
 30
0.0
 10
4.82025
 20
11.9597853706
 30
0.0
 10
4.8207297181
 20
11.9604748348
 30
0.0
 10
4.8216258191
 20
11.9611311827
 30
0.0
 10
4.8231452251
 20
11.9619584719
 30
0.0
 10
4.8257273239
 20
11.962876006
 30
0.0
 10
4.8295575345
 20
11.9638297994
 30
0.0
 10
4.8342338561
 20
11.9646389719
 30
0.0
 10
4.8395908264
 20
11.9652598132
 30
0.0
 10
4.8454231807
 20
11.9656480255
 30
0.0
 10
4.8494492323
 20
11.9657369437
 30
0.0
 10
4.8515
 20
11.9657369437
 30
0.0
  0
SPLINE
  5
31E
100
AcDbEntity
  8
0
100
AcDbSpline
 62
7
  6
BYLAYER
 70
0
 71
3
 72
16
 73
12
 74
0
 42
0.0000001
 43
0.0000001
 44
0.0000000001
 40
0.0
 40
0.0
 40
0.0
 40
0.0
 40
0.1879029816
 40
0.3688388001
 40
0.5353906304
 40
0.6818076515
 40
0.8033814819
 40
0.8966630255
 40
0.9322877523
 40
0.9607429069
 40
1.0
 40
1.0
 40
1.0
 40
1.0
 10
5.1015
 20
11.9657369437
 30
0.0
 10
5.1035507677
 20
11.9657369437
 30
0.0
 10
5.1075768193
 20
11.9656480255
 30
0.0
 10
5.1134091736
 20
11.9652598132
 30
0.0
 10
5.1187661439
 20
11.9646389719
 30
0.0
 10
5.1234424655
 20
11.9638297994
 30
0.0
 10
5.1272726761
 20
11.962876006
 30
0.0
 10
5.1298547749
 20
11.9619584719
 30
0.0
 10
5.1313741809
 20
11.9611311827
 30
0.0
 10
5.1322702819
 20
11.9604748348
 30
0.0
 10
5.13275
 20
11.9597853706
 30
0.0
 10
5.13275
 20
11.9593569198
 30
0.0
  0
SPLINE
  5
31F
100
AcDbEntity
  8
0
100
AcDbSpline
 62
7
  6
BYLAYER
 70
0
 71
3
 72
15
 73
11
 74
0
 42
0.0000001
 43
0.0000001
 44
0.0000000001
 40
0.0
 40
0.0
 40
0.0
 40
0.0
 40
0.253172322
 40
0.3797571186
 40
0.5061466477
 40
0.6320807478
 40
0.7571062849
 40
0.8803641188
 40
0.9408317697
 40
1.0
 40
1.0
 40
1.0
 40
1.0
 10
17.3437144789
 20
4.4708235
 30
0.0
 10
17.3350819565
 20
4.4963606346
 30
0.0
 10
17.3205612598
 20
4.5341481836
 30
0.0
 10
17.2988609914
 20
4.5834821931
 30
0.0
 10
17.2815125662
 20
4.619914013
 30
0.0
 10
17.26311756
 20
4.655642685
 30
0.0
 10
17.2436102837
 20
4.6903960377
 30
0.0
 10
17.2262038253
 20
4.7183091577
 30
0.0
 10
17.2113813026
 20
4.7395089826
 30
0.0
 10
17.2035970614
 20
4.7496028406
 30
0.0
 10
17.1995818599
 20
4.7544575288
 30
0.0
  0
SPLINE
  5
320
100
AcDbEntity
  8
0
100
AcDbSpline
 62
7
  6
BYLAYER
 70
0
 71
3
 72
11
 73
7
 74
0
 42
0.0000001
 43
0.0000001
 44
0.0000000001
 40
0.0
 40
0.0
 40
0.0
 40
0.0
 40
0.2491753407
 40
0.4987212423
 40
0.7490024706
 40
1.0
 40
1.0
 40
1.0
 40
1.0
 10
17.3858933794
 20
4.1226753817
 30
0.0
 10
17.3893346521
 20
4.151831481
 30
0.0
 10
17.3925056815
 20
4.2106949138
 30
0.0
 10
17.3861510392
 20
4.2989231417
 30
0.0
 10
17.369741651
 20
4.3860176089
 30
0.0
 10
17.35318488
 20
4.442807713
 30
0.0
 10
17.3437144789
 20
4.4708235
 30
0.0
  0
SPLINE
  5
321
100
AcDbEntity
  8
0
100
AcDbSpline
 62
7
  6
BYLAYER
 70
0
 71
3
 72
18
 73
14
 74
0
 42
0.0000001
 43
0.0000001
 44
0.0000000001
 40
0.0
 40
0.0
 40
0.0
 40
0.0
 40
0.1733069115
 40
0.3326746341
 40
0.4771783125
 40
0.6064646445
 40
0.7209894265
 40
0.7732168337
 40
0.822465347
 40
0.869172634
 40
0.9138844701
 40
0.9572507459
 40
1.0
 40
1.0
 40
1.0
 40
1.0
 10
16.809092623
 20
12.9781101187
 30
0.0
 10
16.8151452336
 20
12.9976963739
 30
0.0
 10
16.8279543078
 20
13.0349449294
 30
0.0
 10
16.8503370522
 20
13.086828496
 30
0.0
 10
16.8748679043
 20
13.1319134726
 30
0.0
 10
16.9012549293
 20
13.1696438374
 30
0.0
 10
16.9252929793
 20
13.1953486558
 30
0.0
 10
16.9452235248
 20
13.2113973174
 30
0.0
 10
16.9599721932
 20
13.2209350946
 30
0.0
 10
16.9749346742
 20
13.2283083679
 30
0.0
 10
16.9900675053
 20
13.2334792511
 30
0.0
 10
17.0053119222
 20
13.2364191526
 30
0.0
 10
17.0155312342
 20
13.2368771729
 30
0.0
 10
17.0205858902
 20
13.2367325232
 30
0.0
  0
SPLINE
  5
322
100
AcDbEntity
  8
0
100
AcDbSpline
 62
7
  6
BYLAYER
 70
0
 71
3
 72
29
 73
25
 74
0
 42
0.0000001
 43
0.0000001
 44
0.0000000001
 40
0.0
 40
0.0
 40
0.0
 40
0.0
 40
0.0675652609
 40
0.1397794906
 40
0.2155315149
 40
0.2935928228
 40
0.3726669616
 40
0.4514278951
 40
0.5285585875
 40
0.602790232
 40
0.6729429845
 40
0.7379717914
 40
0.7682967362
 40
0.7970401251
 40
0.8241375803
 40
0.8495481485
 40
0.8732586538
 40
0.8952907282
 40
0.9157087441
 40
0.9346290057
 40
0.9522310191
 40
0.9687663117
 40
0.9845600755
 40
1.0
 40
1.0
 40
1.0
 40
1.0
 10
16.809092623
 20
12.9781101187
 30
0.0
 10
16.8010103648
 20
12.9519559218
 30
0.0
 10
16.7865587962
 20
12.8971320345
 30
0.0
 10
16.7701805061
 20
12.8113002377
 30
0.0
 10
16.758602904
 20
12.7204027832
 30
0.0
 10
16.7520614501
 20
12.6262249266
 30
0.0
 10
16.7506869276
 20
12.5306122766
 30
0.0
 10
16.7545073489
 20
12.4354429017
 30
0.0
 10
16.7634459959
 20
12.3425855113
 30
0.0
 10
16.7773221656
 20
12.2538574776
 30
0.0
 10
16.7958579951
 20
12.1709973723
 30
0.0
 10
16.8153066324
 20
12.1067372449
 30
0.0
 10
16.8330897867
 20
12.0596905914
 30
0.0
 10
16.8470262125
 20
12.027665039
 30
0.0
 10
16.8618032048
 20
11.9982277774
 30
0.0
 10
16.8773504873
 20
11.9715206337
 30
0.0
 10
16.8935955753
 20
11.9476720931
 30
0.0
 10
16.9104650038
 20
11.9267963117
 30
0.0
 10
16.9278855529
 20
11.9089938328
 30
0.0
 10
16.9457869074
 20
11.8943552451
 30
0.0
 10
16.9640978124
 20
11.8829642856
 30
0.0
 10
16.9827442888
 20
11.8749017304
 30
0.0
 10
17.0016251936
 20
11.870245829
 30
0.0
 10
17.0143368503
 20
11.8694512091
 30
0.0
 10
17.0205898717
 20
11.8696305133
 30
0.0
  0
SPLINE
  5
323
100
AcDbEntity
  8
0
100
AcDbSpline
 62
7
  6
BYLAYER
 70
0
 71
3
 72
15
 73
11
 74
0
 42
0.0000001
 43
0.0000001
 44
0.0000000001
 40
0.0
 40
0.0
 40
0.0
 40
0.0
 40
0.1510881709
 40
0.296357145
 40
0.4347975551
 40
0.5655618262
 40
0.6879097587
 40
0.801282167
 40
0.9053338225
 40
1.0
 40
1.0
 40
1.0
 40
1.0
 10
17.2760003648
 20
12.3060853025
 30
0.0
 10
17.2789768766
 20
12.286846341
 30
0.0
 10
17.2855852737
 20
12.2492227149
 30
0.0
 10
17.2977192381
 20
12.1945088061
 30
0.0
 10
17.3117976665
 20
12.1429685515
 30
0.0
 10
17.3276927992
 20
12.0950572404
 30
0.0
 10
17.3452657429
 20
12.0511917375
 30
0.0
 10
17.3643651107
 20
12.0117498096
 30
0.0
 10
17.3848244548
 20
11.9770743262
 30
0.0
 10
17.3999749842
 20
11.9563563261
 30
0.0
 10
17.4077794014
 20
11.9469819984
 30
0.0
  0
LINE
  5
324
100
AcDbEntity
  8
0
100
AcDbLine
 62
7
  6
BYLAYER
 10
16.8435042182
 20
12.2949999352
 11
17.2760003648
 21
12.3060853025
  0
SPLINE
  5
325
100
AcDbEntity
  8
0
100
AcDbSpline
 62
7
  6
BYLAYER
 70
0
 71
3
 72
20
 73
16
 74
0
 42
0.0000001
 43
0.0000001
 44
0.0000000001
 40
0.0
 40
0.0
 40
0.0
 40
0.0
 40
0.1669405927
 40
0.3243546187
 40
0.4703791512
 40
0.5386518731
 40
0.6035544685
 40
0.6649778419
 40
0.7228595933
 40
0.7771829317
 40
0.8279958759
 40
0.8754166096
 40
0.9196632043
 40
0.9610518275
 40
1.0
 40
1.0
 40
1.0
 40
1.0
 10
16.8435042182
 20
12.2949999352
 30
0.0
 10
16.8476870211
 20
12.268758848
 30
0.0
 10
16.857219322
 20
12.2179815354
 30
0.0
 10
16.8755943515
 20
12.145349311
 30
0.0
 10
16.8941498931
 20
12.0890971995
 30
0.0
 10
16.9107656504
 20
12.0478650529
 30
0.0
 10
16.9236728346
 20
12.0196937303
 30
0.0
 10
16.9372546828
 20
11.993691935
 30
0.0
 10
16.951455331
 20
11.9699621327
 30
0.0
 10
16.9662226781
 20
11.9486006239
 30
0.0
 10
16.9814971208
 20
11.9296902148
 30
0.0
 10
16.9972259312
 20
11.9133083964
 30
0.0
 10
17.0133544085
 20
11.8995199938
 30
0.0
 10
17.0298233574
 20
11.8883938295
 30
0.0
 10
17.0412935221
 20
11.8826341284
 30
0.0
 10
17.0470243386
 20
11.8802695345
 30
0.0
  0
LINE
  5
326
100
AcDbEntity
  8
0
100
AcDbLine
 62
7
  6
BYLAYER
 10
17.0470243386
 20
11.8802695345
 11
17.4405681899
 21
11.8903538342
  0
SPLINE
  5
327
100
AcDbEntity
  8
02__ASM_ALL_AXES
100
AcDbSpline
 62
7
  6
BYLAYER
 70
0
 71
3
 72
45
 73
41
 74
0
 42
0.0000001
 43
0.0000001
 44
0.0000000001
 40
0.0
 40
0.0
 40
0.0
 40
0.0
 40
0.0625
 40
0.125
 40
0.15625
 40
0.171875
 40
0.1875
 40
0.21875
 40
0.25
 40
0.28125
 40
0.3125
 40
0.328125
 40
0.3359375
 40
0.34375
 40
0.359375
 40
0.375
 40
0.4375
 40
0.46875
 40
0.484375
 40
0.5
 40
0.515625
 40
0.53125
 40
0.5625
 40
0.625
 40
0.640625
 40
0.65625
 40
0.6640625
 40
0.671875
 40
0.6875
 40
0.71875
 40
0.75
 40
0.78125
 40
0.8125
 40
0.828125
 40
0.8359375
 40
0.84375
 40
0.859375
 40
0.875
 40
0.9375
 40
1.0
 40
1.0
 40
1.0
 40
1.0
 10
18.4623644598
 20
12.9203659183
 30
0.0
 10
18.4608853336
 20
12.9231391171
 30
0.0
 10
18.457929907
 20
12.9286895073
 30
0.0
 10
18.454221494
 20
12.9356075321
 30
0.0
 10
18.4516515685
 20
12.9404868315
 30
0.0
 10
18.4501427696
 20
12.9432181079
 30
0.0
 10
18.4484823271
 20
12.9457350364
 30
0.0
 10
18.4464588149
 20
12.9489551038
 30
0.0
 10
18.4440082689
 20
12.9527859537
 30
0.0
 10
18.441563783
 20
12.9566314769
 30
0.0
 10
18.4395251204
 20
12.9598148611
 30
0.0
 10
18.4380987465
 20
12.9620813692
 30
0.0
 10
18.4372829704
 20
12.9633175007
 30
0.0
 10
18.4364646491
 20
12.9643315446
 30
0.0
 10
18.4354425805
 20
12.9656749434
 30
0.0
 10
18.4329892539
 20
12.9688372614
 30
0.0
 10
18.4301234883
 20
12.9725402125
 30
0.0
 10
18.4272686933
 20
12.9762565326
 30
0.0
 10
18.4256210101
 20
12.9783479137
 30
0.0
 10
18.4244312287
 20
12.9800093209
 30
0.0
 10
18.4230657093
 20
12.9813153576
 30
0.0
 10
18.4213063343
 20
12.9831805697
 30
0.0
 10
18.4181986772
 20
12.9863882743
 30
0.0
 10
18.4151025662
 20
12.9896094254
 30
0.0
 10
18.4124445515
 20
12.9923818957
 30
0.0
 10
18.4113385561
 20
12.9935115492
 30
0.0
 10
18.4104505545
 20
12.9944754254
 30
0.0
 10
18.4095741652
 20
12.9952191219
 30
0.0
 10
18.4080458617
 20
12.9964182296
 30
0.0
 10
18.4058598572
 20
12.9981850234
 30
0.0
 10
18.4032373858
 20
13.0002809873
 30
0.0
 10
18.4006163203
 20
13.0023876532
 30
0.0
 10
18.3984268012
 20
13.0041276918
 30
0.0
 10
18.3969046481
 20
13.005373621
 30
0.0
 10
18.3960184181
 20
13.0060424032
 30
0.0
 10
18.3950703152
 20
13.0065486864
 30
0.0
 10
18.3939063354
 20
13.0072370844
 30
0.0
 10
18.3910953733
 20
13.0088435138
 30
0.0
 10
18.3868863017
 20
13.0112725176
 30
0.0
 10
18.3831419093
 20
13.0134237652
 30
0.0
 10
18.3812700875
 20
13.0145003724
 30
0.0
  0
SPLINE
  5
328
100
AcDbEntity
  8
02__ASM_ALL_AXES
100
AcDbSpline
 62
7
  6
BYLAYER
 70
0
 71
3
 72
45
 73
41
 74
0
 42
0.0000001
 43
0.0000001
 44
0.0000000001
 40
0.0
 40
0.0
 40
0.0
 40
0.0
 40
0.0625
 40
0.125
 40
0.140625
 40
0.15625
 40
0.171875
 40
0.1875
 40
0.21875
 40
0.25
 40
0.28125
 40
0.3125
 40
0.328125
 40
0.34375
 40
0.359375
 40
0.375
 40
0.4375
 40
0.46875
 40
0.484375
 40
0.5
 40
0.515625
 40
0.53125
 40
0.5625
 40
0.625
 40
0.640625
 40
0.65625
 40
0.6640625
 40
0.671875
 40
0.6875
 40
0.71875
 40
0.75
 40
0.78125
 40
0.8125
 40
0.828125
 40
0.8359375
 40
0.84375
 40
0.859375
 40
0.875
 40
0.9375
 40
1.0
 40
1.0
 40
1.0
 40
1.0
 10
18.3812700865
 20
13.0145003729
 30
0.0
 10
18.3796937943
 20
13.015084803
 30
0.0
 10
18.3765411554
 20
13.0162523753
 30
0.0
 10
18.372994682
 20
13.0175716896
 30
0.0
 10
18.3706300086
 20
13.0184427807
 30
0.0
 10
18.3694483057
 20
13.0188932979
 30
0.0
 10
18.3682641392
 20
13.0192856189
 30
0.0
 10
18.3666734725
 20
13.0195315617
 30
0.0
 10
18.3646893644
 20
13.0199347348
 30
0.0
 10
18.3623058199
 20
13.020374696
 30
0.0
 10
18.3599259743
 20
13.0208368517
 30
0.0
 10
18.3579326191
 20
13.0211845385
 30
0.0
 10
18.3563604467
 20
13.0215414537
 30
0.0
 10
18.3551198723
 20
13.0215953087
 30
0.0
 10
18.3538621145
 20
13.0215891823
 30
0.0
 10
18.3513552488
 20
13.0216085194
 30
0.0
 10
18.3484298914
 20
13.0216124218
 30
0.0
 10
18.3454990075
 20
13.0216446557
 30
0.0
 10
18.3438341575
 20
13.0216273006
 30
0.0
 10
18.3425572766
 20
13.0217135131
 30
0.0
 10
18.3413883988
 20
13.0214206974
 30
0.0
 10
18.3397921935
 20
13.0211624003
 30
0.0
 10
18.3370166897
 20
13.0206496795
 30
0.0
 10
18.3342330203
 20
13.0201543391
 30
0.0
 10
18.3318517618
 20
13.0197358755
 30
0.0
 10
18.3308555527
 20
13.0195430495
 30
0.0
 10
18.3300677544
 20
13.0194324962
 30
0.0
 10
18.3292464944
 20
13.019161886
 30
0.0
 10
18.327793746
 20
13.0186138971
 30
0.0
 10
18.325726496
 20
13.0178702133
 30
0.0
 10
18.3232424204
 20
13.0169599426
 30
0.0
 10
18.3207588792
 20
13.0160584207
 30
0.0
 10
18.3186902934
 20
13.0152928647
 30
0.0
 10
18.3172398827
 20
13.0147831521
 30
0.0
 10
18.3164148823
 20
13.0144513
 30
0.0
 10
18.3156042289
 20
13.0139666731
 30
0.0
 10
18.3145860082
 20
13.0134131097
 30
0.0
 10
18.3121463156
 20
13.0120415679
 30
0.0
 10
18.3084850674
 20
13.0100024564
 30
0.0
 10
18.3052313192
 20
13.0081825169
 30
0.0
 10
18.3036043582
 20
13.0072734716
 30
0.0
  0
LINE
  5
329
100
AcDbEntity
  8
02__ASM_ALL_AXES
100
AcDbLine
 62
7
  6
BYLAYER
 10
18.3036043606
 20
13.0072734731
 11
18.296239143
 21
13.0020047869
  0
SPLINE
  5
32A
100
AcDbEntity
  8
02__ASM_ALL_AXES
100
AcDbSpline
 62
7
  6
BYLAYER
 70
0
 71
3
 72
32
 73
28
 74
0
 42
0.0000001
 43
0.0000001
 44
0.0000000001
 40
0.0
 40
0.0
 40
0.0
 40
0.0
 40
0.0625
 40
0.125
 40
0.15625
 40
0.171875
 40
0.1875
 40
0.25
 40
0.3125
 40
0.328125
 40
0.34375
 40
0.375
 40
0.4375
 40
0.46875
 40
0.5
 40
0.53125
 40
0.5625
 40
0.625
 40
0.65625
 40
0.6875
 40
0.75
 40
0.8125
 40
0.828125
 40
0.84375
 40
0.875
 40
0.9375
 40
1.0
 40
1.0
 40
1.0
 40
1.0
 10
18.296239143
 20
13.0020047868
 30
0.0
 10
18.2951047534
 20
13.0010432983
 30
0.0
 10
18.2928355734
 20
12.9991231866
 30
0.0
 10
18.2900011023
 20
12.99670872
 30
0.0
 10
18.2880132905
 20
12.9950449192
 30
0.0
 10
18.286883109
 20
12.9940533441
 30
0.0
 10
18.2852191261
 20
12.9923425126
 30
0.0
 10
18.2827082775
 20
12.9898807918
 30
0.0
 10
18.2802099918
 20
12.9873361685
 30
0.0
 10
18.278533446
 20
12.9857082396
 30
0.0
 10
18.2774395574
 20
12.984477168
 30
0.0
 10
18.2755370946
 20
12.9822506657
 30
0.0
 10
18.273355431
 20
12.9797494983
 30
0.0
 10
18.2711824947
 20
12.9772005419
 30
0.0
 10
18.2695340309
 20
12.9753887848
 30
0.0
 10
18.2679562499
 20
12.9732010812
 30
0.0
 10
18.2658268222
 20
12.9704203073
 30
0.0
 10
18.2637103466
 20
12.9675744408
 30
0.0
 10
18.2615743044
 20
12.964821729
 30
0.0
 10
18.2594992592
 20
12.9617831886
 30
0.0
 10
18.2569238896
 20
12.9579005582
 30
0.0
 10
18.2546064997
 20
12.9543982683
 30
0.0
 10
18.2530516166
 20
12.95211884
 30
0.0
 10
18.2520413817
 20
12.9504549246
 30
0.0
 10
18.2502862724
 20
12.9474730402
 30
0.0
 10
18.2477722355
 20
12.9432500644
 30
0.0
 10
18.2457630595
 20
12.9398604505
 30
0.0
 10
18.2447582148
 20
12.9381670478
 30
0.0
  0
LINE
  5
32B
100
AcDbEntity
  8
02__ASM_ALL_AXES
100
AcDbLine
 62
7
  6
BYLAYER
 10
18.2447582164
 20
12.9381670506
 11
18.2419500311
 21
12.9330565332
  0
LINE
  5
32C
100
AcDbEntity
  8
02__ASM_ALL_AXES
100
AcDbLine
 62
7
  6
BYLAYER
 10
18.2416887731
 20
12.9325706097
 11
18.2405751613
 21
12.9304789636
  0
SPLINE
  5
32D
100
AcDbEntity
  8
02__ASM_ALL_AXES
100
AcDbSpline
 62
7
  6
BYLAYER
 70
0
 71
3
 72
59
 73
55
 74
0
 42
0.0000001
 43
0.0000001
 44
0.0000000001
 40
0.0
 40
0.0
 40
0.0
 40
0.0
 40
0.0625
 40
0.09375
 40
0.125
 40
0.140625
 40
0.15625
 40
0.1640625
 40
0.16796875
 40
0.171875
 40
0.1796875
 40
0.1875
 40
0.21875
 40
0.25
 40
0.28125
 40
0.3125
 40
0.328125
 40
0.3359375
 40
0.34375
 40
0.359375
 40
0.375
 40
0.40625
 40
0.4375
 40
0.453125
 40
0.46875
 40
0.484375
 40
0.4921875
 40
0.49609375
 40
0.5
 40
0.50390625
 40
0.5078125
 40
0.515625
 40
0.53125
 40
0.546875
 40
0.5625
 40
0.59375
 40
0.625
 40
0.640625
 40
0.65625
 40
0.6640625
 40
0.671875
 40
0.6875
 40
0.71875
 40
0.75
 40
0.78125
 40
0.8125
 40
0.828125
 40
0.8359375
 40
0.84375
 40
0.859375
 40
0.875
 40
0.90625
 40
0.9375
 40
1.0
 40
1.0
 40
1.0
 40
1.0
 10
18.2405751613
 20
12.9304789637
 30
0.0
 10
18.2384378564
 20
12.9258900227
 30
0.0
 10
18.2352319884
 20
12.9190062237
 30
0.0
 10
18.2309571397
 20
12.9098293755
 30
0.0
 10
18.2282861055
 20
12.9040906151
 30
0.0
 10
18.2261475768
 20
12.8995069719
 30
0.0
 10
18.2248148764
 20
12.8966253971
 30
0.0
 10
18.2238742103
 20
12.8946419591
 30
0.0
 10
18.2233488527
 20
12.893455895
 30
0.0
 10
18.2228693189
 20
12.8920714458
 30
0.0
 10
18.2222542369
 20
12.8904086956
 30
0.0
 10
18.2207909491
 20
12.8863622625
 30
0.0
 10
18.2185903613
 20
12.8803163658
 30
0.0
 10
18.215660592
 20
12.8722401532
 30
0.0
 10
18.2127254977
 20
12.8641733358
 30
0.0
 10
18.2102937127
 20
12.8574321848
 30
0.0
 10
18.2085641263
 20
12.8527487554
 30
0.0
 10
18.2076184164
 20
12.8500175058
 30
0.0
 10
18.2068332426
 20
12.8470791398
 30
0.0
 10
18.2057968077
 20
12.843477098
 30
0.0
 10
18.2041692322
 20
12.8376742036
 30
0.0
 10
18.2021242308
 20
12.8304341294
 30
0.0
 10
18.2000829574
 20
12.8231894141
 30
0.0
 10
18.1984494171
 20
12.8173939456
 30
0.0
 10
18.1972235897
 20
12.8130492176
 30
0.0
 10
18.1962045248
 20
12.8094222396
 30
0.0
 10
18.1954863118
 20
12.8068959153
 30
0.0
 10
18.1950835114
 20
12.8054326808
 30
0.0
 10
18.1947599809
 20
12.8043905282
 30
0.0
 10
18.1945183673
 20
12.8031370927
 30
0.0
 10
18.1941676424
 20
12.8015395432
 30
0.0
 10
18.1935671859
 20
12.7987094952
 30
0.0
 10
18.1927024374
 20
12.7946845134
 30
0.0
 10
18.1916676883
 20
12.7898468875
 30
0.0
 10
18.1902871287
 20
12.7833992268
 30
0.0
 10
18.1885607617
 20
12.775339967
 30
0.0
 10
18.1868381825
 20
12.7672763091
 30
0.0
 10
18.1854515625
 20
12.7608356854
 30
0.0
 10
18.1846044227
 20
12.7567867382
 30
0.0
 10
18.1838820555
 20
12.7536015424
 30
0.0
 10
18.1833227116
 20
12.7502193448
 30
0.0
 10
18.1824196402
 20
12.7442089416
 30
0.0
 10
18.1810896386
 20
12.7356707273
 30
0.0
 10
18.1795119424
 20
12.7254033796
 30
0.0
 10
18.1779248625
 20
12.7151450726
 30
0.0
 10
18.1766183201
 20
12.7065842564
 30
0.0
 10
18.175674195
 20
12.7006134066
 30
0.0
 10
18.1751805369
 20
12.6971679235
 30
0.0
 10
18.1748594694
 20
12.6935960928
 30
0.0
 10
18.1743990401
 20
12.6891745656
 30
0.0
 10
18.1736953789
 20
12.6820759452
 30
0.0
 10
18.1728044896
 20
12.6732109515
 30
0.0
 10
18.1713854178
 20
12.6590223121
 30
0.0
 10
18.1703196849
 20
12.6483818787
 30
0.0
 10
18.1696095138
 20
12.641288024
 30
0.0
  0
LINE
  5
32E
100
AcDbEntity
  8
02__ASM_ALL_AXES
100
AcDbLine
 62
7
  6
BYLAYER
 10
18.1696095136
 20
12.6412880204
 11
18.1692497241
 21
12.6363149701
  0
SPLINE
  5
32F
100
AcDbEntity
  8
02__ASM_ALL_AXES
100
AcDbSpline
 62
7
  6
BYLAYER
 70
0
 71
3
 72
39
 73
35
 74
0
 42
0.0000001
 43
0.0000001
 44
0.0000000001
 40
0.0
 40
0.0
 40
0.0
 40
0.0
 40
0.0625
 40
0.125
 40
0.15625
 40
0.171875
 40
0.1875
 40
0.25
 40
0.28125
 40
0.3125
 40
0.328125
 40
0.34375
 40
0.375
 40
0.40625
 40
0.4375
 40
0.46875
 40
0.484375
 40
0.5
 40
0.515625
 40
0.53125
 40
0.5625
 40
0.625
 40
0.65625
 40
0.671875
 40
0.6875
 40
0.71875
 40
0.75
 40
0.78125
 40
0.8125
 40
0.828125
 40
0.84375
 40
0.875
 40
0.9375
 40
1.0
 40
1.0
 40
1.0
 40
1.0
 10
18.1691777237
 20
12.6352823592
 30
0.0
 10
18.1689013238
 20
12.6298078922
 30
0.0
 10
18.1683446849
 20
12.6188597695
 30
0.0
 10
18.1676680827
 20
12.6051705601
 30
0.0
 10
18.1671591876
 20
12.5955955664
 30
0.0
 10
18.1669231004
 20
12.5901125818
 30
0.0
 10
18.1668664224
 20
12.581825704
 30
0.0
 10
18.1667028594
 20
12.5721756574
 30
0.0
 10
18.1665525528
 20
12.5611477963
 30
0.0
 10
18.1664784133
 20
12.5542329284
 30
0.0
 10
18.1663624209
 20
12.5487547345
 30
0.0
 10
18.16645731
 20
12.5430797028
 30
0.0
 10
18.1666486618
 20
12.5359186177
 30
0.0
 10
18.1668462079
 20
12.5273530096
 30
0.0
 10
18.1670556732
 20
12.5187842979
 30
0.0
 10
18.167217227
 20
12.5116309719
 30
0.0
 10
18.1673717121
 20
12.5059404219
 30
0.0
 10
18.16741965
 20
12.5015838168
 30
0.0
 10
18.1677266705
 20
12.4975659267
 30
0.0
 10
18.1680458561
 20
12.4920906896
 30
0.0
 10
18.1686444806
 20
12.4825630493
 30
0.0
 10
18.1693245221
 20
12.4716580146
 30
0.0
 10
18.1698902733
 20
12.4621048798
 30
0.0
 10
18.1702658131
 20
12.4566733475
 30
0.0
 10
18.1708401204
 20
12.4513476433
 30
0.0
 10
18.1714892749
 20
12.4446543916
 30
0.0
 10
18.1723000115
 20
12.4366371305
 30
0.0
 10
18.1730937109
 20
12.4286191
 30
0.0
 10
18.1737854581
 20
12.4219277719
 30
0.0
 10
18.1742745801
 20
12.4165982205
 30
0.0
 10
18.1749965402
 20
12.4111823335
 30
0.0
 10
18.176368116
 20
12.4016643764
 30
0.0
 10
18.1782705913
 20
12.388088429
 30
0.0
 10
18.1798099182
 20
12.3772212302
 30
0.0
 10
18.1805774133
 20
12.3717884359
 30
0.0
  0
LINE
  5
330
100
AcDbEntity
  8
02__ASM_ALL_AXES
100
AcDbLine
 62
7
  6
BYLAYER
 10
18.1812937858
 20
12.3674658056
 11
18.1832912498
 21
12.3560032474
  0
SPLINE
  5
331
100
AcDbEntity
  8
02__ASM_ALL_AXES
100
AcDbSpline
 62
7
  6
BYLAYER
 70
0
 71
3
 72
37
 73
33
 74
0
 42
0.0000001
 43
0.0000001
 44
0.0000000001
 40
0.0
 40
0.0
 40
0.0
 40
0.0
 40
0.0625
 40
0.125
 40
0.15625
 40
0.171875
 40
0.1875
 40
0.25
 40
0.28125
 40
0.3125
 40
0.328125
 40
0.34375
 40
0.375
 40
0.4375
 40
0.46875
 40
0.484375
 40
0.5
 40
0.515625
 40
0.53125
 40
0.5625
 40
0.625
 40
0.65625
 40
0.671875
 40
0.6875
 40
0.71875
 40
0.75
 40
0.8125
 40
0.828125
 40
0.84375
 40
0.875
 40
0.9375
 40
1.0
 40
1.0
 40
1.0
 40
1.0
 10
18.1836830593
 20
12.3538476175
 30
0.0
 10
18.1844491521
 20
12.3500305699
 30
0.0
 10
18.1859784672
 20
12.3423967732
 30
0.0
 10
18.1879044634
 20
12.3328530349
 30
0.0
 10
18.1892262885
 20
12.3261751604
 30
0.0
 10
18.1900225209
 20
12.3223549788
 30
0.0
 10
18.1914393939
 20
12.3166009689
 30
0.0
 10
18.1930187775
 20
12.30989911
 30
0.0
 10
18.1948537254
 20
12.3022253426
 30
0.0
 10
18.1960098769
 20
12.2974527423
 30
0.0
 10
18.1969049718
 20
12.2935818767
 30
0.0
 10
18.1979119246
 20
12.2899033488
 30
0.0
 10
18.199725779
 20
12.2835543808
 30
0.0
 10
18.2017796141
 20
12.2762666358
 30
0.0
 10
18.203575279
 20
12.2698848296
 30
0.0
 10
18.2046134138
 20
12.2662625957
 30
0.0
 10
18.2053563047
 20
12.2634738196
 30
0.0
 10
18.2062360162
 20
12.2609611901
 30
0.0
 10
18.2073613381
 20
12.2575149264
 30
0.0
 10
18.2093518606
 20
12.2515264084
 30
0.0
 10
18.2116241884
 20
12.2446796192
 30
0.0
 10
18.2135979732
 20
12.2386535029
 30
0.0
 10
18.2147519884
 20
12.2352716935
 30
0.0
 10
18.2160050891
 20
12.2321238014
 30
0.0
 10
18.2175385779
 20
12.2281096731
 30
0.0
 10
18.2200044668
 20
12.2217265175
 30
0.0
 10
18.2221895926
 20
12.2161560825
 30
0.0
 10
18.223997918
 20
12.2113311616
 30
0.0
 10
18.2253549085
 20
12.2082372845
 30
0.0
 10
18.2278027005
 20
12.2028823561
 30
0.0
 10
18.2312610943
 20
12.1952012182
 30
0.0
 10
18.234039528
 20
12.1890658286
 30
0.0
 10
18.23542728
 20
12.1859969437
 30
0.0
  0
LINE
  5
332
100
AcDbEntity
  8
02__ASM_ALL_AXES
100
AcDbLine
 62
7
  6
BYLAYER
 10
18.2354272816
 20
12.1859969405
 11
18.241947328
 21
12.1733113439
  0
SPLINE
  5
333
100
AcDbEntity
  8
02__ASM_ALL_AXES
100
AcDbSpline
 62
7
  6
BYLAYER
 70
0
 71
3
 72
27
 73
23
 74
0
 42
0.0000001
 43
0.0000001
 44
0.0000000001
 40
0.0
 40
0.0
 40
0.0
 40
0.0
 40
0.125
 40
0.15625
 40
0.1875
 40
0.25
 40
0.3125
 40
0.34375
 40
0.375
 40
0.4375
 40
0.46875
 40
0.5
 40
0.53125
 40
0.5625
 40
0.625
 40
0.65625
 40
0.6875
 40
0.75
 40
0.8125
 40
0.84375
 40
0.875
 40
1.0
 40
1.0
 40
1.0
 40
1.0
 10
18.2419473282
 20
12.1733113436
 30
0.0
 10
18.2433866973
 20
12.1707456679
 30
0.0
 10
18.2452125308
 20
12.1675278187
 30
0.0
 10
18.2473236647
 20
12.1636986635
 30
0.0
 10
18.2489014687
 20
12.161077064
 30
0.0
 10
18.2509356179
 20
12.1577816223
 30
0.0
 10
18.2529424875
 20
12.1544731431
 30
0.0
 10
18.2545639389
 20
12.1518724037
 30
0.0
 10
18.2562264949
 20
12.1494493757
 30
0.0
 10
18.2578757773
 20
12.1469684079
 30
0.0
 10
18.2595340519
 20
12.144527976
 30
0.0
 10
18.2607640548
 20
12.142633984
 30
0.0
 10
18.262044374
 20
12.1409743962
 30
0.0
 10
18.2637332813
 20
12.1386766046
 30
0.0
 10
18.265430665
 20
12.136420052
 30
0.0
 10
18.2671162584
 20
12.1341035383
 30
0.0
 10
18.268837711
 20
12.1319718835
 30
0.0
 10
18.271002919
 20
12.129376132
 30
0.0
 10
18.2731589331
 20
12.1267341417
 30
0.0
 10
18.274895096
 20
12.124676469
 30
0.0
 10
18.2775541686
 20
12.1218588356
 30
0.0
 10
18.2797557843
 20
12.119440788
 30
0.0
 10
18.2815216458
 20
12.1175287563
 30
0.0
  0
SPLINE
  5
334
100
AcDbEntity
  8
02__ASM_ALL_AXES
100
AcDbSpline
 62
7
  6
BYLAYER
 70
0
 71
3
 72
70
 73
66
 74
0
 42
0.0000001
 43
0.0000001
 44
0.0000000001
 40
0.0
 40
0.0
 40
0.0
 40
0.0
 40
0.0625
 40
0.09375
 40
0.125
 40
0.140625
 40
0.15625
 40
0.1640625
 40
0.16796875
 40
0.171875
 40
0.1796875
 40
0.1875
 40
0.203125
 40
0.21875
 40
0.25
 40
0.28125
 40
0.296875
 40
0.3125
 40
0.3203125
 40
0.328125
 40
0.33203125
 40
0.3359375
 40
0.34375
 40
0.359375
 40
0.375
 40
0.40625
 40
0.4375
 40
0.453125
 40
0.46875
 40
0.484375
 40
0.4921875
 40
0.49609375
 40
0.5
 40
0.50390625
 40
0.5078125
 40
0.515625
 40
0.53125
 40
0.546875
 40
0.5625
 40
0.59375
 40
0.609375
 40
0.625
 40
0.640625
 40
0.65625
 40
0.6640625
 40
0.66796875
 40
0.671875
 40
0.6796875
 40
0.6875
 40
0.703125
 40
0.71875
 40
0.75
 40
0.78125
 40
0.796875
 40
0.8125
 40
0.8203125
 40
0.828125
 40
0.83203125
 40
0.8359375
 40
0.84375
 40
0.859375
 40
0.875
 40
0.90625
 40
0.9375
 40
1.0
 40
1.0
 40
1.0
 40
1.0
 10
18.2815216451
 20
12.117528757
 30
0.0
 10
18.2843230787
 20
12.1151969117
 30
0.0
 10
18.288525275
 20
12.1116996063
 30
0.0
 10
18.2941280201
 20
12.1070346818
 30
0.0
 10
18.2976301174
 20
12.1041229597
 30
0.0
 10
18.3004309252
 20
12.1017847911
 30
0.0
 10
18.3021834144
 20
12.100343485
 30
0.0
 10
18.3034061801
 20
12.0992943903
 30
0.0
 10
18.3041111252
 20
12.0987577735
 30
0.0
 10
18.3048395089
 20
12.0984579817
 30
0.0
 10
18.3057419631
 20
12.0980021533
 30
0.0
 10
18.307190375
 20
12.097318145
 30
0.0
 10
18.3089993532
 20
12.0964476111
 30
0.0
 10
18.3118945823
 20
12.0950634728
 30
0.0
 10
18.3155132857
 20
12.0933300242
 30
0.0
 10
18.3191322409
 20
12.0915987836
 30
0.0
 10
18.3220270671
 20
12.0902111126
 30
0.0
 10
18.3238370526
 20
12.0893494104
 30
0.0
 10
18.3252833996
 20
12.0886472971
 30
0.0
 10
18.3261911103
 20
12.088237559
 30
0.0
 10
18.3269087041
 20
12.0878431578
 30
0.0
 10
18.327657602
 20
12.0876919334
 30
0.0
 10
18.3289827155
 20
12.0875402563
 30
0.0
 10
18.3308681471
 20
12.0872646369
 30
0.0
 10
18.3338890804
 20
12.086856572
 30
0.0
 10
18.3376637771
 20
12.0863352961
 30
0.0
 10
18.3414390498
 20
12.0858176414
 30
0.0
 10
18.3444590615
 20
12.0854037825
 30
0.0
 10
18.3467243442
 20
12.0850904211
 30
0.0
 10
18.3486112526
 20
12.084839067
 30
0.0
 10
18.3499337058
 20
12.0846438785
 30
0.0
 10
18.3506868689
 20
12.0845623921
 30
0.0
 10
18.3512588523
 20
12.0844166249
 30
0.0
 10
18.3518036538
 20
12.084594442
 30
0.0
 10
18.3525395371
 20
12.0847186617
 30
0.0
 10
18.3538229153
 20
12.0849886345
 30
0.0
 10
18.3556586223
 20
12.0853468139
 30
0.0
 10
18.3578604823
 20
12.0857884078
 30
0.0
 10
18.3607966404
 20
12.0863730384
 30
0.0
 10
18.3637327062
 20
12.0869590798
 30
0.0
 10
18.3666687903
 20
12.0875440097
 30
0.0
 10
18.3688708907
 20
12.0879846309
 30
0.0
 10
18.3710728327
 20
12.0884181129
 30
0.0
 10
18.3729082813
 20
12.0888015418
 30
0.0
 10
18.3741921212
 20
12.0890264583
 30
0.0
 10
18.3749272647
 20
12.0892228674
 30
0.0
 10
18.3756681362
 20
12.0896749712
 30
0.0
 10
18.3765922644
 20
12.0901525513
 30
0.0
 10
18.3780719653
 20
12.0909656073
 30
0.0
 10
18.379921217
 20
12.0919651674
 30
0.0
 10
18.3828802247
 20
12.0935738714
 30
0.0
 10
18.386578945
 20
12.0955812322
 30
0.0
 10
18.3902775664
 20
12.0975909101
 30
0.0
 10
18.3932367323
 20
12.0991959067
 30
0.0
 10
18.3950855885
 20
12.1002047354
 30
0.0
 10
18.3965661003
 20
12.1009987907
 30
0.0
 10
18.3974881642
 20
12.1015247416
 30
0.0
 10
18.398233273
 20
12.101877555
 30
0.0
 10
18.3989511559
 20
12.1024784247
 30
0.0
 10
18.4001948033
 20
12.1036451796
 30
0.0
 10
18.4019780413
 20
12.1052518495
 30
0.0
 10
18.4048275344
 20
12.1078561215
 30
0.0
 10
18.408390664
 20
12.1110999518
 30
0.0
 10
18.4140909621
 20
12.1162965419
 30
0.0
 10
18.4183663452
 20
12.1201925305
 30
0.0
 10
18.4212165652
 20
12.1227901794
 30
0.0
  0
SPLINE
  5
335
100
AcDbEntity
  8
02__ASM_ALL_AXES
100
AcDbSpline
 62
7
  6
BYLAYER
 70
0
 71
3
 72
65
 73
61
 74
0
 42
0.0000001
 43
0.0000001
 44
0.0000000001
 40
0.0
 40
0.0
 40
0.0
 40
0.0
 40
0.0625
 40
0.09375
 40
0.125
 40
0.140625
 40
0.15625
 40
0.1640625
 40
0.16796875
 40
0.171875
 40
0.1796875
 40
0.1875
 40
0.203125
 40
0.21875
 40
0.25
 40
0.28125
 40
0.3125
 40
0.3203125
 40
0.328125
 40
0.33203125
 40
0.3359375
 40
0.34375
 40
0.359375
 40
0.375
 40
0.40625
 40
0.4375
 40
0.453125
 40
0.46875
 40
0.484375
 40
0.4921875
 40
0.49609375
 40
0.5
 40
0.50390625
 40
0.5078125
 40
0.515625
 40
0.53125
 40
0.546875
 40
0.5625
 40
0.59375
 40
0.625
 40
0.640625
 40
0.65625
 40
0.6640625
 40
0.671875
 40
0.6796875
 40
0.6875
 40
0.71875
 40
0.75
 40
0.78125
 40
0.8125
 40
0.8203125
 40
0.828125
 40
0.83203125
 40
0.8359375
 40
0.84375
 40
0.859375
 40
0.875
 40
0.90625
 40
0.9375
 40
1.0
 40
1.0
 40
1.0
 40
1.0
 10
18.4212165664
 20
12.1227901808
 30
0.0
 10
18.4238395769
 20
12.126228167
 30
0.0
 10
18.4277739977
 20
12.1313855566
 30
0.0
 10
18.4330202721
 20
12.1382604348
 30
0.0
 10
18.4362984017
 20
12.1425606529
 30
0.0
 10
18.4389227109
 20
12.1459930316
 30
0.0
 10
18.4405587864
 20
12.1481560482
 30
0.0
 10
18.4417122915
 20
12.1496345272
 30
0.0
 10
18.4423585259
 20
12.1505351229
 30
0.0
 10
18.4429561218
 20
12.1516457388
 30
0.0
 10
18.4437197702
 20
12.1529620985
 30
0.0
 10
18.4449323017
 20
12.1551084584
 30
0.0
 10
18.446451147
 20
12.1577776667
 30
0.0
 10
18.4488795531
 20
12.1620559771
 30
0.0
 10
18.4519154344
 20
12.1674020029
 30
0.0
 10
18.4555593182
 20
12.173814807
 30
0.0
 10
18.4582893039
 20
12.1786339251
 30
0.0
 10
18.4601139147
 20
12.1818315706
 30
0.0
 10
18.4608672817
 20
12.1831864464
 30
0.0
 10
18.4614860433
 20
12.1842178005
 30
0.0
 10
18.4620460429
 20
12.1854413222
 30
0.0
 10
18.4629987399
 20
12.1876717705
 30
0.0
 10
18.4643739802
 20
12.1908115424
 30
0.0
 10
18.4665664064
 20
12.1958612003
 30
0.0
 10
18.4693096473
 20
12.2021644324
 30
0.0
 10
18.4720520035
 20
12.2084704973
 30
0.0
 10
18.4742458452
 20
12.2135156226
 30
0.0
 10
18.4758918872
 20
12.2172969467
 30
0.0
 10
18.4772614045
 20
12.2204563359
 30
0.0
 10
18.4782243647
 20
12.2226516106
 30
0.0
 10
18.4787679148
 20
12.2239315065
 30
0.0
 10
18.4791944878
 20
12.2248197254
 30
0.0
 10
18.4795487757
 20
12.2259820299
 30
0.0
 10
18.4800463733
 20
12.2274361652
 30
0.0
 10
18.4809054224
 20
12.2300254446
 30
0.0
 10
18.48213877
 20
12.233701136
 30
0.0
 10
18.4836161908
 20
12.2381218942
 30
0.0
 10
18.4855868454
 20
12.2440129491
 30
0.0
 10
18.4880509525
 20
12.2513766166
 30
0.0
 10
18.4905109538
 20
12.258745
 30
0.0
 10
18.4924881777
 20
12.2646285094
 30
0.0
 10
18.4937029385
 20
12.2683313381
 30
0.0
 10
18.4947228513
 20
12.2712348756
 30
0.0
 10
18.495356076
 20
12.2735733241
 30
0.0
 10
18.4959523938
 20
12.2759568291
 30
0.0
 10
18.4971640096
 20
12.2807006724
 30
0.0
 10
18.4989735329
 20
12.2878260127
 30
0.0
 10
18.5013904059
 20
12.2973217314
 30
0.0
 10
18.503807432
 20
12.3068159632
 30
0.0
 10
18.505616611
 20
12.3139446488
 30
0.0
 10
18.5068286667
 20
12.3186842176
 30
0.0
 10
18.5073247934
 20
12.3206782929
 30
0.0
 10
18.5077424527
 20
12.32222863
 30
0.0
 10
18.5080841975
 20
12.3239432558
 30
0.0
 10
18.5086469792
 20
12.3270201834
 30
0.0
 10
18.5094693561
 20
12.3313759677
 30
0.0
 10
18.5107748744
 20
12.33836748
 30
0.0
 10
18.5124102953
 20
12.3470992461
 30
0.0
 10
18.515024991
 20
12.3610743522
 30
0.0
 10
18.5169864578
 20
12.3715547187
 30
0.0
 10
18.5182940034
 20
12.3785418437
 30
0.0
  0
SPLINE
  5
336
100
AcDbEntity
  8
02__ASM_ALL_AXES
100
AcDbSpline
 62
7
  6
BYLAYER
 70
0
 71
3
 72
14
 73
10
 74
0
 42
0.0000001
 43
0.0000001
 44
0.0000000001
 40
0.0
 40
0.0
 40
0.0
 40
0.0
 40
0.125
 40
0.25
 40
0.5
 40
0.625
 40
0.75
 40
0.875
 40
1.0
 40
1.0
 40
1.0
 40
1.0
 10
18.5185471113
 20
12.3801696094
 30
0.0
 10
18.5190552501
 20
12.3836119994
 30
0.0
 10
18.5200928718
 20
12.3904769477
 30
0.0
 10
18.5219973615
 20
12.4043654978
 30
0.0
 10
18.5237817221
 20
12.418364035
 30
0.0
 10
18.525286579
 20
12.4325795767
 30
0.0
 10
18.5263387291
 20
12.443278201
 30
0.0
 10
18.5273132858
 20
12.454066981
 30
0.0
 10
18.5278861798
 20
12.4614188325
 30
0.0
 10
18.5281822281
 20
12.4650748418
 30
0.0
  0
SPLINE
  5
337
100
AcDbEntity
  8
02__ASM_ALL_AXES
100
AcDbSpline
 62
7
  6
BYLAYER
 70
0
 71
3
 72
50
 73
46
 74
0
 42
0.0000001
 43
0.0000001
 44
0.0000000001
 40
0.0
 40
0.0
 40
0.0
 40
0.0
 40
0.0625
 40
0.125
 40
0.140625
 40
0.15625
 40
0.1640625
 40
0.171875
 40
0.1875
 40
0.21875
 40
0.25
 40
0.28125
 40
0.3125
 40
0.328125
 40
0.3359375
 40
0.34375
 40
0.359375
 40
0.375
 40
0.4375
 40
0.46875
 40
0.484375
 40
0.4921875
 40
0.5
 40
0.5078125
 40
0.515625
 40
0.53125
 40
0.5625
 40
0.625
 40
0.640625
 40
0.65625
 40
0.6640625
 40
0.671875
 40
0.6875
 40
0.71875
 40
0.75
 40
0.78125
 40
0.8125
 40
0.828125
 40
0.8359375
 40
0.84375
 40
0.859375
 40
0.875
 40
0.90625
 40
0.9375
 40
1.0
 40
1.0
 40
1.0
 40
1.0
 10
18.5281822278
 20
12.4650748385
 30
0.0
 10
18.52854304
 20
12.4723745351
 30
0.0
 10
18.5292668403
 20
12.4869735734
 30
0.0
 10
18.5300713236
 20
12.5033990885
 30
0.0
 10
18.5306219259
 20
12.514347103
 30
0.0
 10
18.5308302633
 20
12.5189122136
 30
0.0
 10
18.5310460978
 20
12.522556284
 30
0.0
 10
18.5310821381
 20
12.5262296766
 30
0.0
 10
18.5310616202
 20
12.5326717335
 30
0.0
 10
18.5310763027
 20
12.5418675958
 30
0.0
 10
18.5310738103
 20
12.5529054648
 30
0.0
 10
18.5310813738
 20
12.5639433185
 30
0.0
 10
18.5310709165
 20
12.5731392191
 30
0.0
 10
18.5310943934
 20
12.579581209
 30
0.0
 10
18.5310600419
 20
12.5832547088
 30
0.0
 10
18.5308458771
 20
12.5868994284
 30
0.0
 10
18.5306396728
 20
12.5914651828
 30
0.0
 10
18.5300938059
 20
12.602414727
 30
0.0
 10
18.529477673
 20
12.6151936592
 30
0.0
 10
18.528844009
 20
12.6279664325
 30
0.0
 10
18.5285410466
 20
12.634359379
 30
0.0
 10
18.5283466533
 20
12.6380021256
 30
0.0
 10
18.5282607114
 20
12.6407634085
 30
0.0
 10
18.527945993
 20
12.6434129823
 30
0.0
 10
18.5276061721
 20
12.6469847181
 30
0.0
 10
18.526974265
 20
12.6532170445
 30
0.0
 10
18.5257381292
 20
12.665695637
 30
0.0
 10
18.5244848054
 20
12.6781634355
 30
0.0
 10
18.5234275888
 20
12.688863293
 30
0.0
 10
18.5229668317
 20
12.6933047519
 30
0.0
 10
18.5226451205
 20
12.6968969578
 30
0.0
 10
18.5221520315
 20
12.7003464609
 30
0.0
 10
18.5212094576
 20
12.7063167382
 30
0.0
 10
18.5199048409
 20
12.7148807143
 30
0.0
 10
18.518320196
 20
12.7251411093
 30
0.0
 10
18.5167449026
 20
12.7354109958
 30
0.0
 10
18.515416907
 20
12.7439512431
 30
0.0
 10
18.5145152462
 20
12.7499630458
 30
0.0
 10
18.5139566963
 20
12.7533461083
 30
0.0
 10
18.5132350767
 20
12.7565324218
 30
0.0
 10
18.5123888872
 20
12.7605826803
 30
0.0
 10
18.5110037801
 20
12.7670254456
 30
0.0
 10
18.5092830851
 20
12.7750917985
 30
0.0
 10
18.5065239723
 20
12.7879907231
 30
0.0
 10
18.5044559879
 20
12.7976665456
 30
0.0
 10
18.5030770315
 20
12.804116732
 30
0.0
  0
LINE
  5
338
100
AcDbEntity
  8
02__ASM_ALL_AXES
100
AcDbLine
 62
7
  6
BYLAYER
 10
18.5030770324
 20
12.8041167284
 11
18.5011148308
 21
12.8118958041
  0
LINE
  5
339
100
AcDbEntity
  8
02__ASM_ALL_AXES
100
AcDbLine
 62
7
  6
BYLAYER
 10
18.5011148308
 20
12.8118958044
 11
18.4988497503
 21
12.8204763095
  0
LINE
  5
33A
100
AcDbEntity
  8
02__ASM_ALL_AXES
100
AcDbLine
 62
7
  6
BYLAYER
 10
18.4988497504
 20
12.8204763095
 11
18.4976729058
 21
12.8247782554
  0
SPLINE
  5
33B
100
AcDbEntity
  8
02__ASM_ALL_AXES
100
AcDbSpline
 62
7
  6
BYLAYER
 70
0
 71
3
 72
30
 73
26
 74
0
 42
0.0000001
 43
0.0000001
 44
0.0000000001
 40
0.0
 40
0.0
 40
0.0
 40
0.0
 40
0.125
 40
0.15625
 40
0.1875
 40
0.25
 40
0.3125
 40
0.34375
 40
0.375
 40
0.4375
 40
0.46875
 40
0.484375
 40
0.5
 40
0.515625
 40
0.53125
 40
0.5625
 40
0.625
 40
0.65625
 40
0.6875
 40
0.75
 40
0.8125
 40
0.84375
 40
0.875
 40
0.9375
 40
1.0
 40
1.0
 40
1.0
 40
1.0
 10
18.4976729058
 20
12.8247782555
 30
0.0
 10
18.4964351653
 20
12.8290410833
 30
0.0
 10
18.4948767326
 20
12.834346673
 30
0.0
 10
18.4930403842
 20
12.840782216
 30
0.0
 10
18.4917441075
 20
12.8449257292
 30
0.0
 10
18.490091989
 20
12.8500577819
 30
0.0
 10
18.4884719429
 20
12.8551913222
 30
0.0
 10
18.4871243503
 20
12.8593324553
 30
0.0
 10
18.4855961334
 20
12.8636164315
 30
0.0
 10
18.48411965
 20
12.8678527577
 30
0.0
 10
18.4828104614
 20
12.8715908836
 30
0.0
 10
18.482066085
 20
12.8736970541
 30
0.0
 10
18.4815015416
 20
12.8753574317
 30
0.0
 10
18.480960177
 20
12.8767097612
 30
0.0
 10
18.4802300028
 20
12.8786204698
 30
0.0
 10
18.4789587965
 20
12.881912551
 30
0.0
 10
18.4774858063
 20
12.8857063532
 30
0.0
 10
18.476065824
 20
12.8894649231
 30
0.0
 10
18.4744607209
 20
12.8933225238
 30
0.0
 10
18.472389389
 20
12.8981684673
 30
0.0
 10
18.4703469041
 20
12.9030357293
 30
0.0
 10
18.4686956459
 20
12.9068592203
 30
0.0
 10
18.4670000575
 20
12.9104175039
 30
0.0
 10
18.4648958835
 20
12.9149569596
 30
0.0
 10
18.4632078779
 20
12.9185606076
 30
0.0
 10
18.4623644584
 20
12.9203659212
 30
0.0
  0
SPLINE
  5
33C
100
AcDbEntity
  8
02__ASM_ALL_AXES
100
AcDbSpline
 62
7
  6
BYLAYER
 70
0
 71
3
 72
72
 73
68
 74
0
 42
0.0000001
 43
0.0000001
 44
0.0000000001
 40
0.0
 40
0.0
 40
0.0
 40
0.0
 40
0.0625
 40
0.09375
 40
0.125
 40
0.140625
 40
0.15625
 40
0.1640625
 40
0.16796875
 40
0.171875
 40
0.1796875
 40
0.1875
 40
0.203125
 40
0.21875
 40
0.25
 40
0.28125
 40
0.296875
 40
0.3125
 40
0.3203125
 40
0.328125
 40
0.33203125
 40
0.3359375
 40
0.34375
 40
0.359375
 40
0.375
 40
0.390625
 40
0.40625
 40
0.4375
 40
0.453125
 40
0.46875
 40
0.484375
 40
0.4921875
 40
0.49609375
 40
0.5
 40
0.50390625
 40
0.5078125
 40
0.515625
 40
0.53125
 40
0.546875
 40
0.5625
 40
0.59375
 40
0.609375
 40
0.625
 40
0.640625
 40
0.65625
 40
0.6640625
 40
0.66796875
 40
0.671875
 40
0.6796875
 40
0.6875
 40
0.703125
 40
0.71875
 40
0.75
 40
0.78125
 40
0.796875
 40
0.8125
 40
0.8203125
 40
0.828125
 40
0.83203125
 40
0.8359375
 40
0.83984375
 40
0.84375
 40
0.859375
 40
0.875
 40
0.90625
 40
0.9375
 40
1.0
 40
1.0
 40
1.0
 40
1.0
 10
17.3561246031
 20
13.7361650192
 30
0.0
 10
17.3549132869
 20
13.7306743133
 30
0.0
 10
17.3530968008
 20
13.7224383149
 30
0.0
 10
17.3506728666
 20
13.7114567421
 30
0.0
 10
17.349161976
 20
13.7045937624
 30
0.0
 10
17.3479439879
 20
13.6991022312
 30
0.0
 10
17.3472039
 20
13.6956726411
 30
0.0
 10
17.3466434428
 20
13.6932666835
 30
0.0
 10
17.3463895135
 20
13.6919000562
 30
0.0
 10
17.3463854668
 20
13.6905643401
 30
0.0
 10
17.3462948488
 20
13.688884111
 30
0.0
 10
17.3461976758
 20
13.6862016594
 30
0.0
 10
17.3460598301
 20
13.6828465687
 30
0.0
 10
17.3458484739
 20
13.6774795613
 30
0.0
 10
17.3455808197
 20
13.6707703739
 30
0.0
 10
17.3453155047
 20
13.6640614771
 30
0.0
 10
17.3451004059
 20
13.6586940048
 30
0.0
 10
17.3449719167
 20
13.6553400764
 30
0.0
 10
17.3448555629
 20
13.652655242
 30
0.0
 10
17.344813774
 20
13.6509810789
 30
0.0
 10
17.3447094961
 20
13.6496329112
 30
0.0
 10
17.3448638598
 20
13.6483170057
 30
0.0
 10
17.345254165
 20
13.6460291605
 30
0.0
 10
17.3457489082
 20
13.642752972
 30
0.0
 10
17.3463695396
 20
13.6388249076
 30
0.0
 10
17.34698295
 20
13.6348959371
 30
0.0
 10
17.3478034227
 20
13.6296576595
 30
0.0
 10
17.3486227849
 20
13.6244190961
 30
0.0
 10
17.3494435345
 20
13.6191811279
 30
0.0
 10
17.350056045
 20
13.615251152
 30
0.0
 10
17.3505760648
 20
13.6119809232
 30
0.0
 10
17.3509212655
 20
13.6096824418
 30
0.0
 10
17.3511478959
 20
13.6083835779
 30
0.0
 10
17.3512351254
 20
13.607368431
 30
0.0
 10
17.3516386415
 20
13.6065100028
 30
0.0
 10
17.3520663387
 20
13.6053107665
 30
0.0
 10
17.3528662111
 20
13.6032375728
 30
0.0
 10
17.3539820102
 20
13.6002625507
 30
0.0
 10
17.3553324822
 20
13.5966982279
 30
0.0
 10
17.3571290432
 20
13.5919437871
 30
0.0
 10
17.3589269881
 20
13.587190001
 30
0.0
 10
17.3607238325
 20
13.5824357587
 30
0.0
 10
17.3620733833
 20
13.5788707907
 30
0.0
 10
17.3634158145
 20
13.5753031958
 30
0.0
 10
17.3645566412
 20
13.5723383619
 30
0.0
 10
17.3653118533
 20
13.5702469875
 30
0.0
 10
17.3658111056
 20
13.5690768805
 30
0.0
 10
17.3665653636
 20
13.5680008022
 30
0.0
 10
17.3674208725
 20
13.566623509
 30
0.0
 10
17.3688384825
 20
13.5644378328
 30
0.0
 10
17.3705937811
 20
13.5616995725
 30
0.0
 10
17.3734116366
 20
13.5573218259
 30
0.0
 10
17.3769304784
 20
13.5518482793
 30
0.0
 10
17.3804515083
 20
13.5463758486
 30
0.0
 10
17.3832658629
 20
13.5419963166
 30
0.0
 10
17.3850299139
 20
13.5392625197
 30
0.0
 10
17.3864295813
 20
13.5370676936
 30
0.0
 10
17.3873307674
 20
13.5357136934
 30
0.0
 10
17.3879912642
 20
13.5345898017
 30
0.0
 10
17.3886521566
 20
13.5338582979
 30
0.0
 10
17.3893594305
 20
13.5331580145
 30
0.0
 10
17.3907501214
 20
13.531741389
 30
0.0
 10
17.3928461513
 20
13.5296231776
 30
0.0
 10
17.39656498
 20
13.5258524561
 30
0.0
 10
17.4012160667
 20
13.5211407711
 30
0.0
 10
17.4086563734
 20
13.5136011112
 30
0.0
 10
17.4142369256
 20
13.5079465832
 30
0.0
 10
17.4179572222
 20
13.5041768497
 30
0.0
  0
SPLINE
  5
33D
100
AcDbEntity
  8
02__ASM_ALL_AXES
100
AcDbSpline
 62
7
  6
BYLAYER
 70
0
 71
3
 72
27
 73
23
 74
0
 42
0.0000001
 43
0.0000001
 44
0.0000000001
 40
0.0
 40
0.0
 40
0.0
 40
0.0
 40
0.125
 40
0.1875
 40
0.25
 40
0.28125
 40
0.3125
 40
0.34375
 40
0.375
 40
0.4375
 40
0.46875
 40
0.5
 40
0.53125
 40
0.5625
 40
0.625
 40
0.65625
 40
0.6875
 40
0.71875
 40
0.75
 40
0.8125
 40
0.875
 40
1.0
 40
1.0
 40
1.0
 40
1.0
 10
17.4179572225
 20
13.5041768494
 30
0.0
 10
17.4195002785
 20
13.502941648
 30
0.0
 10
17.4218068283
 20
13.5010823136
 30
0.0
 10
17.4249143643
 20
13.4986293302
 30
0.0
 10
17.4269248131
 20
13.4971572487
 30
0.0
 10
17.428523592
 20
13.4959651343
 30
0.0
 10
17.4297104735
 20
13.4950777761
 30
0.0
 10
17.4309509557
 20
13.4941707321
 30
0.0
 10
17.4328607848
 20
13.4928728308
 30
0.0
 10
17.4347046544
 20
13.4915917652
 30
0.0
 10
17.4365545128
 20
13.4903265744
 30
0.0
 10
17.4379899
 20
13.4893132214
 30
0.0
 10
17.439230319
 20
13.4885497707
 30
0.0
 10
17.440948038
 20
13.4874456486
 30
0.0
 10
17.4426727314
 20
13.4863588494
 30
0.0
 10
17.4443286312
 20
13.4852847223
 30
0.0
 10
17.4457699624
 20
13.4844237876
 30
0.0
 10
17.4472677778
 20
13.4835456343
 30
0.0
 10
17.4492442158
 20
13.4823855548
 30
0.0
 10
17.4517284213
 20
13.4808975654
 30
0.0
 10
17.4556570378
 20
13.4787376955
 30
0.0
 10
17.4585956143
 20
13.4771629173
 30
0.0
 10
17.4605564177
 20
13.4761030376
 30
0.0
  0
SPLINE
  5
33E
100
AcDbEntity
  8
02__ASM_ALL_AXES
100
AcDbSpline
 62
7
  6
BYLAYER
 70
0
 71
3
 72
83
 73
79
 74
0
 42
0.0000001
 43
0.0000001
 44
0.0000000001
 40
0.0
 40
0.0
 40
0.0
 40
0.0
 40
0.0625
 40
0.09375
 40
0.109375
 40
0.125
 40
0.140625
 40
0.15625
 40
0.16015625
 40
0.1640625
 40
0.166015625
 40
0.16796875
 40
0.171875
 40
0.1796875
 40
0.1875
 40
0.203125
 40
0.21875
 40
0.25
 40
0.28125
 40
0.296875
 40
0.3125
 40
0.3203125
 40
0.328125
 40
0.33203125
 40
0.333984375
 40
0.3359375
 40
0.33984375
 40
0.34375
 40
0.359375
 40
0.375
 40
0.390625
 40
0.40625
 40
0.4375
 40
0.453125
 40
0.46875
 40
0.4765625
 40
0.484375
 40
0.4921875
 40
0.49609375
 40
0.5
 40
0.50390625
 40
0.5078125
 40
0.515625
 40
0.5234375
 40
0.53125
 40
0.546875
 40
0.5625
 40
0.59375
 40
0.609375
 40
0.625
 40
0.640625
 40
0.65625
 40
0.66015625
 40
0.6640625
 40
0.666015625
 40
0.66796875
 40
0.671875
 40
0.6796875
 40
0.6875
 40
0.703125
 40
0.71875
 40
0.75
 40
0.78125
 40
0.796875
 40
0.8125
 40
0.8203125
 40
0.828125
 40
0.83203125
 40
0.833984375
 40
0.8359375
 40
0.83984375
 40
0.84375
 40
0.859375
 40
0.875
 40
0.890625
 40
0.90625
 40
0.9375
 40
1.0
 40
1.0
 40
1.0
 40
1.0
 10
17.460556417
 20
13.476103038
 30
0.0
 10
17.4672637158
 20
13.4734796591
 30
0.0
 10
17.477324629
 20
13.4695445383
 30
0.0
 10
17.4890624837
 20
13.4649537481
 30
0.0
 10
17.495769654
 20
13.4623301764
 30
0.0
 10
17.5008005225
 20
13.4603632341
 30
0.0
 10
17.5058295155
 20
13.4583934776
 30
0.0
 10
17.5096065186
 20
13.4569240502
 30
0.0
 10
17.5121163428
 20
13.4559321614
 30
0.0
 10
17.513174272
 20
13.4555371337
 30
0.0
 10
17.5139922274
 20
13.4551785163
 30
0.0
 10
17.5149139994
 20
13.4549756724
 30
0.0
 10
17.516575336
 20
13.4546930715
 30
0.0
 10
17.5189235071
 20
13.4542515937
 30
0.0
 10
17.5226946456
 20
13.453566333
 30
0.0
 10
17.5274037514
 20
13.452702528
 30
0.0
 10
17.5349410214
 20
13.4513244991
 30
0.0
 10
17.5443616231
 20
13.4496004359
 30
0.0
 10
17.5537827922
 20
13.4478774072
 30
0.0
 10
17.5613191544
 20
13.4464977231
 30
0.0
 10
17.5660305297
 20
13.4456380561
 30
0.0
 10
17.5697970158
 20
13.4449443124
 30
0.0
 10
17.5721570305
 20
13.4445244301
 30
0.0
 10
17.5737970948
 20
13.4442030415
 30
0.0
 10
17.574752965
 20
13.4440623717
 30
0.0
 10
17.5757792336
 20
13.4440835893
 30
0.0
 10
17.5770380069
 20
13.4440547776
 30
0.0
 10
17.5800788673
 20
13.4440311716
 30
0.0
 10
17.5846318398
 20
13.4439766346
 30
0.0
 10
17.5907072239
 20
13.4439148502
 30
0.0
 10
17.596781337
 20
13.4438501458
 30
0.0
 10
17.6048805941
 20
13.4437648711
 30
0.0
 10
17.6129797556
 20
13.4436794491
 30
0.0
 10
17.6210788743
 20
13.4435937206
 30
0.0
 10
17.6261410099
 20
13.4435410294
 30
0.0
 10
17.6301902818
 20
13.4434968193
 30
0.0
 10
17.6332284338
 20
13.4434692997
 30
0.0
 10
17.6357564152
 20
13.4434284304
 30
0.0
 10
17.63778735
 20
13.4434359631
 30
0.0
 10
17.6392871893
 20
13.4433316899
 30
0.0
 10
17.6408762006
 20
13.4436469937
 30
0.0
 10
17.6429637334
 20
13.4439208351
 30
0.0
 10
17.6455838364
 20
13.4443134221
 30
0.0
 10
17.6487233856
 20
13.4447630028
 30
0.0
 10
17.652911049
 20
13.4453699612
 30
0.0
 10
17.658145081
 20
13.4461260877
 30
0.0
 10
17.6665198388
 20
13.4473373131
 30
0.0
 10
17.6748945084
 20
13.4485482288
 30
0.0
 10
17.6832692128
 20
13.4497590062
 30
0.0
 10
17.6895502246
 20
13.450667814
 30
0.0
 10
17.6958312853
 20
13.451573792
 30
0.0
 10
17.7005419465
 20
13.4522612214
 30
0.0
 10
17.7036825958
 20
13.4527071488
 30
0.0
 10
17.7049908894
 20
13.4529113428
 30
0.0
 10
17.7060382482
 20
13.4530317956
 30
0.0
 10
17.7070829593
 20
13.4533091453
 30
0.0
 10
17.7089099735
 20
13.4538674051
 30
0.0
 10
17.7115206356
 20
13.4546268845
 30
0.0
 10
17.7156973363
 20
13.4558633076
 30
0.0
 10
17.7209183355
 20
13.4574015553
 30
0.0
 10
17.7292718618
 20
13.4598668387
 30
0.0
 10
17.7397138189
 20
13.4629469148
 30
0.0
 10
17.7501556699
 20
13.4660279944
 30
0.0
 10
17.7585093659
 20
13.4684916722
 30
0.0
 10
17.7637299411
 20
13.4700339337
 30
0.0
 10
17.767907511
 20
13.4712621285
 30
0.0
 10
17.77051596
 20
13.4720425549
 30
0.0
 10
17.7723469492
 20
13.4725631917
 30
0.0
 10
17.7733852886
 20
13.4729008485
 30
0.0
 10
17.7743937216
 20
13.4733897301
 30
0.0
 10
17.775664485
 20
13.4739491427
 30
0.0
 10
17.7787059038
 20
13.4753342757
 30
0.0
 10
17.7832715657
 20
13.4773941069
 30
0.0
 10
17.7893570952
 20
13.4801507611
 30
0.0
 10
17.7954431649
 20
13.4829046835
 30
0.0
 10
17.8035577361
 20
13.4865775332
 30
0.0
 10
17.817758324
 20
13.4930045733
 30
0.0
 10
17.8299302262
 20
13.4985136181
 30
0.0
 10
17.8380448344
 20
13.5021862805
 30
0.0
  0
LINE
  5
33F
100
AcDbEntity
  8
02__ASM_ALL_AXES
100
AcDbLine
 62
7
  6
BYLAYER
 10
17.8380448232
 20
13.5021862745
 11
17.8415585907
 21
13.5040948092
  0
SPLINE
  5
340
100
AcDbEntity
  8
02__ASM_ALL_AXES
100
AcDbSpline
 62
7
  6
BYLAYER
 70
0
 71
3
 72
31
 73
27
 74
0
 42
0.0000001
 43
0.0000001
 44
0.0000000001
 40
0.0
 40
0.0
 40
0.0
 40
0.0
 40
0.125
 40
0.1875
 40
0.25
 40
0.28125
 40
0.3125
 40
0.328125
 40
0.34375
 40
0.375
 40
0.4375
 40
0.46875
 40
0.484375
 40
0.5
 40
0.515625
 40
0.53125
 40
0.5625
 40
0.625
 40
0.65625
 40
0.671875
 40
0.6875
 40
0.71875
 40
0.75
 40
0.8125
 40
0.875
 40
1.0
 40
1.0
 40
1.0
 40
1.0
 10
17.8415585908
 20
13.5040948093
 30
0.0
 10
17.8446856392
 20
13.5058658524
 30
0.0
 10
17.8493845695
 20
13.5085108766
 30
0.0
 10
17.8556163795
 20
13.5120837374
 30
0.0
 10
17.8594403601
 20
13.514427897
 30
0.0
 10
17.8625094068
 20
13.5162737426
 30
0.0
 10
17.8644383557
 20
13.5174455404
 30
0.0
 10
17.8659531421
 20
13.518346803
 30
0.0
 10
17.8675727833
 20
13.5193782525
 30
0.0
 10
17.8704569242
 20
13.5212440741
 30
0.0
 10
17.8737264452
 20
13.5233487504
 30
0.0
 10
17.8766074374
 20
13.5252022466
 30
0.0
 10
17.8782324763
 20
13.5262548253
 30
0.0
 10
17.8795092222
 20
13.527060544
 30
0.0
 10
17.8805647224
 20
13.5278044051
 30
0.0
 10
17.8820493335
 20
13.5288179369
 30
0.0
 10
17.8846103499
 20
13.5305800907
 30
0.0
 10
17.8875594711
 20
13.5326078713
 30
0.0
 10
17.8901186113
 20
13.5343572436
 30
0.0
 10
17.8916064388
 20
13.5353926867
 30
0.0
 10
17.8931878254
 20
13.5365623052
 30
0.0
 10
17.8951333231
 20
13.5379778228
 30
0.0
 10
17.8982589087
 20
13.5402719362
 30
0.0
 10
17.9021949134
 20
13.5431059601
 30
0.0
 10
17.9082811971
 20
13.5477969823
 30
0.0
 10
17.9128008183
 20
13.5513454303
 30
0.0
 10
17.9158239195
 20
13.5537043553
 30
0.0
  0
SPLINE
  5
341
100
AcDbEntity
  8
02__ASM_ALL_AXES
100
AcDbSpline
 62
7
  6
BYLAYER
 70
0
 71
3
 72
51
 73
47
 74
0
 42
0.0000001
 43
0.0000001
 44
0.0000000001
 40
0.0
 40
0.0
 40
0.0
 40
0.0
 40
0.0625
 40
0.09375
 40
0.125
 40
0.140625
 40
0.15625
 40
0.1640625
 40
0.171875
 40
0.1875
 40
0.21875
 40
0.25
 40
0.28125
 40
0.3125
 40
0.328125
 40
0.3359375
 40
0.34375
 40
0.359375
 40
0.375
 40
0.4375
 40
0.46875
 40
0.484375
 40
0.4921875
 40
0.5
 40
0.5078125
 40
0.515625
 40
0.53125
 40
0.5625
 40
0.625
 40
0.640625
 40
0.65625
 40
0.6640625
 40
0.671875
 40
0.6875
 40
0.71875
 40
0.75
 40
0.78125
 40
0.8125
 40
0.828125
 40
0.8359375
 40
0.84375
 40
0.859375
 40
0.875
 40
0.90625
 40
0.9375
 40
1.0
 40
1.0
 40
1.0
 40
1.0
 10
17.9158239191
 20
13.553704355
 30
0.0
 10
17.9195239317
 20
13.5569455477
 30
0.0
 10
17.925073598
 20
13.5618078124
 30
0.0
 10
17.9324745636
 20
13.5682889295
 30
0.0
 10
17.9370972285
 20
13.5723435912
 30
0.0
 10
17.9408020604
 20
13.5755782838
 30
0.0
 10
17.9431022997
 20
13.5776205769
 30
0.0
 10
17.9449774896
 20
13.579207206
 30
0.0
 10
17.9467249104
 20
13.5809661684
 30
0.0
 10
17.9497234876
 20
13.5841244428
 30
0.0
 10
17.9540385706
 20
13.5885942258
 30
0.0
 10
17.9592017364
 20
13.5939766823
 30
0.0
 10
17.9643743957
 20
13.5993515317
 30
0.0
 10
17.9686657448
 20
13.6038403324
 30
0.0
 10
17.9717058565
 20
13.606965326
 30
0.0
 10
17.9733868221
 20
13.6087775377
 30
0.0
 10
17.9748560336
 20
13.6106894748
 30
0.0
 10
17.9767649787
 20
13.6130452912
 30
0.0
 10
17.9812863741
 20
13.6187274819
 30
0.0
 10
17.9865861651
 20
13.6253456535
 30
0.0
 10
17.9918640308
 20
13.6319722754
 30
0.0
 10
17.9945209539
 20
13.6352795414
 30
0.0
 10
17.9960114875
 20
13.6371785632
 30
0.0
 10
17.997207372
 20
13.6385770903
 30
0.0
 10
17.9981051733
 20
13.6400739968
 30
0.0
 10
17.9994062229
 20
13.6420355559
 30
0.0
 10
18.0016345486
 20
13.6454842763
 30
0.0
 10
18.0061274312
 20
13.6523699743
 30
0.0
 10
18.010596971
 20
13.6592621621
 30
0.0
 10
18.0144521461
 20
13.6651642325
 30
0.0
 10
18.0160293498
 20
13.6676295367
 30
0.0
 10
18.0173585848
 20
13.6695876723
 30
0.0
 10
18.0184412271
 20
13.6715973524
 30
0.0
 10
18.020221216
 20
13.6751382625
 30
0.0
 10
18.0228243804
 20
13.6801840279
 30
0.0
 10
18.0259206502
 20
13.6862450105
 30
0.0
 10
18.0290305132
 20
13.692302021
 30
0.0
 10
18.0315996943
 20
13.6973577164
 30
0.0
 10
18.033439154
 20
13.700881249
 30
0.0
 10
18.0344266432
 20
13.7029187332
 30
0.0
 10
18.035174579
 20
13.7050467303
 30
0.0
 10
18.0361915216
 20
13.7076757352
 30
0.0
 10
18.0377727907
 20
13.7118994629
 30
0.0
 10
18.0397650791
 20
13.7171731897
 30
0.0
 10
18.0429439254
 20
13.7256144832
 30
0.0
 10
18.0453300435
 20
13.731944704
 30
0.0
 10
18.0469203481
 20
13.7361650177
 30
0.0
  0
SPLINE
  5
342
100
AcDbEntity
  8
02__ASM_ALL_AXES
100
AcDbSpline
 62
7
  6
BYLAYER
 70
0
 71
3
 72
55
 73
51
 74
0
 42
0.0000001
 43
0.0000001
 44
0.0000000001
 40
0.0
 40
0.0
 40
0.0
 40
0.0
 40
0.0625
 40
0.09375
 40
0.125
 40
0.140625
 40
0.15625
 40
0.1640625
 40
0.171875
 40
0.1875
 40
0.21875
 40
0.25
 40
0.28125
 40
0.3125
 40
0.3203125
 40
0.328125
 40
0.3359375
 40
0.34375
 40
0.359375
 40
0.375
 40
0.4375
 40
0.46875
 40
0.484375
 40
0.4921875
 40
0.5
 40
0.5078125
 40
0.515625
 40
0.53125
 40
0.5625
 40
0.59375
 40
0.625
 40
0.640625
 40
0.65625
 40
0.6640625
 40
0.671875
 40
0.6796875
 40
0.6875
 40
0.71875
 40
0.75
 40
0.78125
 40
0.8125
 40
0.8203125
 40
0.828125
 40
0.8359375
 40
0.84375
 40
0.859375
 40
0.875
 40
0.90625
 40
0.9375
 40
1.0
 40
1.0
 40
1.0
 40
1.0
 10
18.0469203486
 20
13.7361650192
 30
0.0
 10
18.0478932715
 20
13.740130588
 30
0.0
 10
18.0493519505
 20
13.7460790501
 30
0.0
 10
18.0512996771
 20
13.7540098975
 30
0.0
 10
18.0525111286
 20
13.758967584
 30
0.0
 10
18.0534936907
 20
13.7629316657
 30
0.0
 10
18.0540772287
 20
13.765413932
 30
0.0
 10
18.0546140608
 20
13.7673889453
 30
0.0
 10
18.0548953365
 20
13.7694033854
 30
0.0
 10
18.0552688478
 20
13.7729469795
 30
0.0
 10
18.0558644099
 20
13.7779996324
 30
0.0
 10
18.0565529692
 20
13.7840671296
 30
0.0
 10
18.0572468302
 20
13.7901327711
 30
0.0
 10
18.0577709073
 20
13.7946843341
 30
0.0
 10
18.0581124997
 20
13.7977154028
 30
0.0
 10
18.0582976536
 20
13.7992367731
 30
0.0
 10
18.0584269351
 20
13.8007354611
 30
0.0
 10
18.0583334686
 20
13.8026258051
 30
0.0
 10
18.0583075643
 20
13.8050256242
 30
0.0
 10
18.0581700039
 20
13.8107547746
 30
0.0
 10
18.0580403985
 20
13.8174493334
 30
0.0
 10
18.0578841142
 20
13.8241388558
 30
0.0
 10
18.0578274613
 20
13.8274848416
 30
0.0
 10
18.0577620608
 20
13.8293954536
 30
0.0
 10
18.0578059529
 20
13.8308322023
 30
0.0
 10
18.0574945888
 20
13.8322544824
 30
0.0
 10
18.0572033492
 20
13.8341558997
 30
0.0
 10
18.0566359943
 20
13.8374810595
 30
0.0
 10
18.0558552629
 20
13.8422322636
 30
0.0
 10
18.0549073155
 20
13.8479343287
 30
0.0
 10
18.0541145578
 20
13.8526826809
 30
0.0
 10
18.05349261
 20
13.8564891377
 30
0.0
 10
18.0530746476
 20
13.8588504201
 30
0.0
 10
18.0528074013
 20
13.8607801095
 30
0.0
 10
18.0524231425
 20
13.8621160379
 30
0.0
 10
18.0519873707
 20
13.8634207669
 30
0.0
 10
18.0511423325
 20
13.8660462752
 30
0.0
 10
18.0498635407
 20
13.8699777776
 30
0.0
 10
18.0481653913
 20
13.8752237335
 30
0.0
 10
18.0464635835
 20
13.8804683
 30
0.0
 10
18.0451930233
 20
13.8844029287
 30
0.0
 10
18.0443374669
 20
13.8870244423
 30
0.0
 10
18.0439247894
 20
13.8883379424
 30
0.0
 10
18.0434534124
 20
13.8896407836
 30
0.0
 10
18.042545611
 20
13.891327191
 30
0.0
 10
18.0415064909
 20
13.8934525648
 30
0.0
 10
18.0397904542
 20
13.8968434587
 30
0.0
 10
18.0376637156
 20
13.9010854001
 30
0.0
 10
18.0342506562
 20
13.9078706402
 30
0.0
 10
18.0316931741
 20
13.9129599902
 30
0.0
 10
18.0299876721
 20
13.9163527968
 30
0.0
  0
SPLINE
  5
343
100
AcDbEntity
  8
02__ASM_ALL_AXES
100
AcDbSpline
 62
7
  6
BYLAYER
 70
0
 71
3
 72
106
 73
102
 74
0
 42
0.0000001
 43
0.0000001
 44
0.0000000001
 40
0.0
 40
0.0
 40
0.0
 40
0.0
 40
0.03125
 40
0.0625
 40
0.078125
 40
0.09375
 40
0.109375
 40
0.1171875
 40
0.125
 40
0.1328125
 40
0.13671875
 40
0.140625
 40
0.142578125
 40
0.14453125
 40
0.1484375
 40
0.15625
 40
0.1640625
 40
0.171875
 40
0.1875
 40
0.203125
 40
0.21875
 40
0.234375
 40
0.25
 40
0.2578125
 40
0.265625
 40
0.2734375
 40
0.27734375
 40
0.28125
 40
0.283203125
 40
0.28515625
 40
0.2890625
 40
0.29296875
 40
0.296875
 40
0.3046875
 40
0.3125
 40
0.328125
 40
0.34375
 40
0.375
 40
0.390625
 40
0.40625
 40
0.4140625
 40
0.421875
 40
0.42578125
 40
0.427734375
 40
0.4287109375
 40
0.4296875
 40
0.431640625
 40
0.43359375
 40
0.4375
 40
0.4453125
 40
0.453125
 40
0.46875
 40
0.484375
 40
0.5
 40
0.515625
 40
0.53125
 40
0.546875
 40
0.5546875
 40
0.5625
 40
0.56640625
 40
0.568359375
 40
0.5703125
 40
0.5712890625
 40
0.572265625
 40
0.57421875
 40
0.578125
 40
0.5859375
 40
0.59375
 40
0.609375
 40
0.625
 40
0.65625
 40
0.6875
 40
0.6953125
 40
0.703125
 40
0.70703125
 40
0.7109375
 40
0.71484375
 40
0.716796875
 40
0.71875
 40
0.7265625
 40
0.734375
 40
0.7421875
 40
0.75
 40
0.765625
 40
0.78125
 40
0.8125
 40
0.828125
 40
0.84375
 40
0.8515625
 40
0.85546875
 40
0.857421875
 40
0.859375
 40
0.86328125
 40
0.8671875
 40
0.875
 40
0.8828125
 40
0.890625
 40
0.90625
 40
0.9375
 40
0.96875
 40
1.0
 40
1.0
 40
1.0
 40
1.0
 10
18.0299876759
 20
13.9163527906
 30
0.0
 10
18.0271279426
 20
13.9197740089
 30
0.0
 10
18.0214084808
 20
13.9266164494
 30
0.0
 10
18.0142591297
 20
13.9351694812
 30
0.0
 10
18.0085396988
 20
13.942011946
 30
0.0
 10
18.0042499899
 20
13.9471436879
 30
0.0
 10
18.0006756642
 20
13.9514204785
 30
0.0
 10
17.9978152354
 20
13.9548411508
 30
0.0
 10
17.9956725594
 20
13.9574087322
 30
0.0
 10
17.993878581
 20
13.9595417761
 30
0.0
 10
17.9924622717
 20
13.9612630301
 30
0.0
 10
17.9915341023
 20
13.9623050703
 30
0.0
 10
17.990889991
 20
13.9632159822
 30
0.0
 10
17.9898865637
 20
13.96384477
 30
0.0
 10
17.9881933218
 20
13.9649944225
 30
0.0
 10
17.9857415953
 20
13.9666110223
 30
0.0
 10
17.9828135671
 20
13.9685619686
 30
0.0
 10
17.978904624
 20
13.9711593786
 30
0.0
 10
17.974020128
 20
13.9744074625
 30
0.0
 10
17.9681580127
 20
13.9783045982
 30
0.0
 10
17.9622960853
 20
13.9822018796
 30
0.0
 10
17.9564341264
 20
13.9860991431
 30
0.0
 10
17.951549109
 20
13.9893468011
 30
0.0
 10
17.9476412349
 20
13.9919450842
 30
0.0
 10
17.9447099407
 20
13.9938933633
 30
0.0
 10
17.9422684325
 20
13.9955183082
 30
0.0
 10
17.9403124517
 20
13.996815171
 30
0.0
 10
17.9390962809
 20
13.9976327537
 30
0.0
 10
17.9381088764
 20
13.9982706888
 30
0.0
 10
17.9371742897
 20
13.9989675132
 30
0.0
 10
17.9356280083
 20
13.9994170385
 30
0.0
 10
17.9338608521
 20
14.0000550099
 30
0.0
 10
17.931473774
 20
14.00087122
 30
0.0
 10
17.928500496
 20
14.0019032674
 30
0.0
 10
17.9237373448
 20
14.0035479578
 30
0.0
 10
17.9177854261
 20
14.0056060726
 30
0.0
 10
17.9082612391
 20
14.0088978159
 30
0.0
 10
17.8987372898
 20
14.0121897955
 30
0.0
 10
17.889213465
 20
14.0154819966
 30
0.0
 10
17.8832605652
 20
14.0175388715
 30
0.0
 10
17.8784994367
 20
14.019186118
 30
0.0
 10
17.8755210077
 20
14.020211656
 30
0.0
 10
17.8734415665
 20
14.0209375317
 30
0.0
 10
17.8723943722
 20
14.0212895185
 30
0.0
 10
17.8718080076
 20
14.0215082844
 30
0.0
 10
17.8711008375
 20
14.0215500359
 30
0.0
 10
17.8702582332
 20
14.0216628269
 30
0.0
 10
17.8688869843
 20
14.0218094711
 30
0.0
 10
17.8664980518
 20
14.0220818544
 30
0.0
 10
17.8630796806
 20
14.0224627526
 30
0.0
 10
17.8576134224
 20
14.0230767845
 30
0.0
 10
17.8507795235
 20
14.023842747
 30
0.0
 10
17.842579307
 20
14.0247625815
 30
0.0
 10
17.8343789635
 20
14.0256822213
 30
0.0
 10
17.8261786657
 20
14.0266019605
 30
0.0
 10
17.8179783124
 20
14.0275214969
 30
0.0
 10
17.8111448315
 20
14.0282883704
 30
0.0
 10
17.805677722
 20
14.0289005471
 30
0.0
 10
17.8022615172
 20
14.0292861662
 30
0.0
 10
17.7998686937
 20
14.0295500705
 30
0.0
 10
17.7985036817
 20
14.0297103058
 30
0.0
 10
17.7976451124
 20
14.0297883063
 30
0.0
 10
17.7969707264
 20
14.0299015003
 30
0.0
 10
17.7962508117
 20
14.0298292374
 30
0.0
 10
17.7949988967
 20
14.0297351023
 30
0.0
 10
17.7924894332
 20
14.0295238853
 30
0.0
 10
17.7889074246
 20
14.0292341196
 30
0.0
 10
17.7831745682
 20
14.0287638017
 30
0.0
 10
17.7760090609
 20
14.0281782088
 30
0.0
 10
17.7645439299
 20
14.0272398966
 30
0.0
 10
17.7502126576
 20
14.0260680153
 30
0.0
 10
17.7373143626
 20
14.0250112238
 30
0.0
 10
17.7287156785
 20
14.024309689
 30
0.0
 10
17.7251326364
 20
14.0240129776
 30
0.0
 10
17.7222668017
 20
14.0237858816
 30
0.0
 10
17.7201157828
 20
14.0235873836
 30
0.0
 10
17.7183284939
 20
14.0235116082
 30
0.0
 10
17.716877183
 20
14.0230826127
 30
0.0
 10
17.7147057412
 20
14.0225338662
 30
0.0
 10
17.7114462581
 20
14.0216709517
 30
0.0
 10
17.7071016069
 20
14.0205431444
 30
0.0
 10
17.702756601
 20
14.0194092513
 30
0.0
 10
17.696963383
 20
14.0178995243
 30
0.0
 10
17.6897218236
 20
14.016011601
 30
0.0
 10
17.678135318
 20
14.012991556
 30
0.0
 10
17.6665489942
 20
14.0099701641
 30
0.0
 10
17.6549621329
 20
14.0069523388
 30
0.0
 10
17.6477215369
 20
14.0050584038
 30
0.0
 10
17.6426507334
 20
14.003748237
 30
0.0
 10
17.6401185981
 20
14.003071818
 30
0.0
 10
17.6386664049
 20
14.0027196414
 30
0.0
 10
17.6372670099
 20
14.0020226035
 30
0.0
 10
17.635499688
 20
14.0012693872
 30
0.0
 10
17.6326820768
 20
13.9999982455
 30
0.0
 10
17.6291565963
 20
13.9984319608
 30
0.0
 10
17.6249275033
 20
13.9965427285
 30
0.0
 10
17.6192881951
 20
13.9940271323
 30
0.0
 10
17.6094196469
 20
13.989623264
 30
0.0
 10
17.5953215948
 20
13.9833328475
 30
0.0
 10
17.5784039866
 20
13.9757839927
 30
0.0
 10
17.5671255708
 20
13.9707514905
 30
0.0
 10
17.5614863642
 20
13.9682352309
 30
0.0
  0
SPLINE
  5
344
100
AcDbEntity
  8
02__ASM_ALL_AXES
100
AcDbSpline
 62
7
  6
BYLAYER
 70
0
 71
3
 72
31
 73
27
 74
0
 42
0.0000001
 43
0.0000001
 44
0.0000000001
 40
0.0
 40
0.0
 40
0.0
 40
0.0
 40
0.125
 40
0.1875
 40
0.25
 40
0.28125
 40
0.3125
 40
0.328125
 40
0.34375
 40
0.375
 40
0.4375
 40
0.46875
 40
0.484375
 40
0.5
 40
0.515625
 40
0.53125
 40
0.5625
 40
0.625
 40
0.65625
 40
0.671875
 40
0.6875
 40
0.71875
 40
0.75
 40
0.8125
 40
0.875
 40
1.0
 40
1.0
 40
1.0
 40
1.0
 10
17.5614863609
 20
13.9682352291
 30
0.0
 10
17.5583593125
 20
13.966464186
 30
0.0
 10
17.5536603822
 20
13.9638191617
 30
0.0
 10
17.5474285722
 20
13.960246301
 30
0.0
 10
17.5436045916
 20
13.9579021414
 30
0.0
 10
17.5405355449
 20
13.9560562957
 30
0.0
 10
17.5386065961
 20
13.954884498
 30
0.0
 10
17.5370918096
 20
13.9539832354
 30
0.0
 10
17.5354721684
 20
13.9529517858
 30
0.0
 10
17.5325880275
 20
13.9510859643
 30
0.0
 10
17.5293185066
 20
13.948981288
 30
0.0
 10
17.5264375143
 20
13.9471277918
 30
0.0
 10
17.5248124754
 20
13.9460752131
 30
0.0
 10
17.5235357295
 20
13.9452694944
 30
0.0
 10
17.5224802293
 20
13.9445256333
 30
0.0
 10
17.5209956182
 20
13.9435121014
 30
0.0
 10
17.5184346018
 20
13.9417499476
 30
0.0
 10
17.5154854806
 20
13.939722167
 30
0.0
 10
17.5129263404
 20
13.9379727948
 30
0.0
 10
17.5114385129
 20
13.9369373517
 30
0.0
 10
17.5098571263
 20
13.9357677331
 30
0.0
 10
17.5079116286
 20
13.9343522156
 30
0.0
 10
17.504786043
 20
13.9320581021
 30
0.0
 10
17.5008500383
 20
13.9292240783
 30
0.0
 10
17.4947637546
 20
13.924533056
 30
0.0
 10
17.4902441334
 20
13.9209846081
 30
0.0
 10
17.4872210323
 20
13.9186256831
 30
0.0
  0
LINE
  5
345
100
AcDbEntity
  8
02__ASM_ALL_AXES
100
AcDbLine
 62
7
  6
BYLAYER
 10
17.4872210326
 20
13.9186256834
 11
17.4848298908
 21
13.9166863416
  0
SPLINE
  5
346
100
AcDbEntity
  8
02__ASM_ALL_AXES
100
AcDbSpline
 62
7
  6
BYLAYER
 70
0
 71
3
 72
52
 73
48
 74
0
 42
0.0000001
 43
0.0000001
 44
0.0000000001
 40
0.0
 40
0.0
 40
0.0
 40
0.0
 40
0.0625
 40
0.09375
 40
0.125
 40
0.140625
 40
0.15625
 40
0.1640625
 40
0.171875
 40
0.1875
 40
0.21875
 40
0.25
 40
0.28125
 40
0.3125
 40
0.328125
 40
0.3359375
 40
0.34375
 40
0.359375
 40
0.375
 40
0.4375
 40
0.46875
 40
0.484375
 40
0.4921875
 40
0.5
 40
0.5078125
 40
0.515625
 40
0.53125
 40
0.5625
 40
0.625
 40
0.640625
 40
0.65625
 40
0.6640625
 40
0.671875
 40
0.6796875
 40
0.6875
 40
0.71875
 40
0.75
 40
0.78125
 40
0.8125
 40
0.828125
 40
0.8359375
 40
0.84375
 40
0.859375
 40
0.875
 40
0.90625
 40
0.9375
 40
1.0
 40
1.0
 40
1.0
 40
1.0
 10
17.484829891
 20
13.9166863417
 30
0.0
 10
17.4811560537
 20
13.9134259945
 30
0.0
 10
17.4756456561
 20
13.9085350016
 30
0.0
 10
17.4682970257
 20
13.902015566
 30
0.0
 10
17.4637071184
 20
13.897936985
 30
0.0
 10
17.4600283828
 20
13.894683089
 30
0.0
 10
17.4577447042
 20
13.892628949
 30
0.0
 10
17.455882189
 20
13.8910324869
 30
0.0
 10
17.4541495383
 20
13.889264989
 30
0.0
 10
17.451177792
 20
13.8860923938
 30
0.0
 10
17.4469004535
 20
13.8816017311
 30
0.0
 10
17.4417831435
 20
13.8761948329
 30
0.0
 10
17.4366550272
 20
13.8707937604
 30
0.0
 10
17.4324047047
 20
13.8662885336
 30
0.0
 10
17.4293856804
 20
13.8631414256
 30
0.0
 10
17.4277286745
 20
13.8613331481
 30
0.0
 10
17.4263282703
 20
13.8594875468
 30
0.0
 10
17.424490013
 20
13.8571933297
 30
0.0
 10
17.4201508095
 20
13.8516764492
 30
0.0
 10
17.4150602625
 20
13.8452462919
 30
0.0
 10
17.4099906068
 20
13.8388069394
 30
0.0
 10
17.4074413278
 20
13.835597334
 30
0.0
 10
17.4060063859
 20
13.8337473231
 30
0.0
 10
17.4048689414
 20
13.8324047893
 30
0.0
 10
17.4039655548
 20
13.8308903337
 30
0.0
 10
17.4026793878
 20
13.8289310222
 30
0.0
 10
17.4004667337
 20
13.8254743452
 30
0.0
 10
17.3960124379
 20
13.8185807706
 30
0.0
 10
17.3915795148
 20
13.8116800475
 30
0.0
 10
17.3877547732
 20
13.8057663319
 30
0.0
 10
17.3861927754
 20
13.8033037047
 30
0.0
 10
17.3848697397
 20
13.8013300737
 30
0.0
 10
17.3840787886
 20
13.7998595854
 30
0.0
 10
17.3833442566
 20
13.798391829
 30
0.0
 10
17.3818461917
 20
13.7954548983
 30
0.0
 10
17.3796109668
 20
13.7910502825
 30
0.0
 10
17.3766253491
 20
13.7851761356
 30
0.0
 10
17.3736356743
 20
13.7793056275
 30
0.0
 10
17.371162234
 20
13.7744025129
 30
0.0
 10
17.3693948946
 20
13.7709918923
 30
0.0
 10
17.368441196
 20
13.7690093142
 30
0.0
 10
17.3676992455
 20
13.7668999851
 30
0.0
 10
17.3666993051
 20
13.764306723
 30
0.0
 10
17.365139919
 20
13.7601332497
 30
0.0
 10
17.3631768068
 20
13.7549247162
 30
0.0
 10
17.3600436193
 20
13.7465863984
 30
0.0
 10
17.3576919754
 20
13.7403337095
 30
0.0
 10
17.3561246024
 20
13.736165017
 30
0.0
  0
SPLINE
  5
347
100
AcDbEntity
  8
0
100
AcDbSpline
 62
7
  6
BYLAYER
 70
0
 71
3
 72
21
 73
17
 74
0
 42
0.0000001
 43
0.0000001
 44
0.0000000001
 40
0.0
 40
0.0
 40
0.0
 40
0.0
 40
0.1324833525
 40
0.2011719909
 40
0.270717175
 40
0.4097744979
 40
0.4782488693
 40
0.5452181001
 40
0.6102104048
 40
0.6728607986
 40
0.7329441083
 40
0.790405565
 40
0.8453871346
 40
0.898243336
 40
0.9495366349
 40
1.0
 40
1.0
 40
1.0
 40
1.0
 10
17.814991065
 20
14.1033495081
 30
0.0
 10
17.7748324386
 20
14.1033495081
 30
0.0
 10
17.7136550252
 20
14.0961315427
 30
0.0
 10
17.6344572863
 20
14.0743288538
 30
0.0
 10
17.5559108529
 20
14.0440851725
 30
0.0
 10
17.4821823038
 20
14.0025341701
 30
0.0
 10
17.4164890276
 20
13.9512872799
 30
0.0
 10
17.3726044539
 20
13.9090967955
 30
0.0
 10
17.3346919362
 20
13.8637417621
 30
0.0
 10
17.3034369728
 20
13.8160235386
 30
0.0
 10
17.2794185734
 20
13.7667914721
 30
0.0
 10
17.26309484
 20
13.7169174685
 30
0.0
 10
17.2548011747
 20
13.6672933619
 30
0.0
 10
17.2547478987
 20
13.6188187874
 30
0.0
 10
17.2629849093
 20
13.5724316065
 30
0.0
 10
17.2739769953
 20
13.5433826142
 30
0.0
 10
17.2807167387
 20
13.529650878
 30
0.0
  0
SPLINE
  5
348
100
AcDbEntity
  8
0
100
AcDbSpline
 62
7
  6
BYLAYER
 70
0
 71
3
 72
14
 73
10
 74
0
 42
0.0000001
 43
0.0000001
 44
0.0000000001
 40
0.0
 40
0.0
 40
0.0
 40
0.0
 40
0.2773999998
 40
0.408493493
 40
0.5344217102
 40
0.6556036775
 40
0.7728144957
 40
0.8871601151
 40
1.0
 40
1.0
 40
1.0
 40
1.0
 10
17.814991065
 20
14.1033495081
 30
0.0
 10
17.8487509854
 20
14.1033495081
 30
0.0
 10
17.8987692065
 20
14.0983821554
 30
0.0
 10
17.9613904774
 20
14.0803237086
 30
0.0
 10
18.0037348356
 20
14.0619127054
 30
0.0
 10
18.0416535365
 20
14.038635257
 30
0.0
 10
18.0745734309
 20
14.0108069807
 30
0.0
 10
18.1019603681
 20
13.9788412696
 30
0.0
 10
18.116277491
 20
13.9550070658
 30
0.0
 10
18.122328213
 20
13.9426791604
 30
0.0
  0
SPLINE
  5
349
100
AcDbEntity
  8
02___PRT_ALL_AXES
100
AcDbSpline
 62
7
  6
BYLAYER
 70
0
 71
3
 72
15
 73
11
 74
0
 42
0.0000001
 43
0.0000001
 44
0.0000000001
 40
0.0
 40
0.0
 40
0.0
 40
0.0
 40
0.2698240389
 40
0.4092446546
 40
0.5448668238
 40
0.6726306825
 40
0.7902103718
 40
0.8979727675
 40
0.9494028895
 40
1.0
 40
1.0
 40
1.0
 40
1.0
 10
17.8702212679
 20
13.4917356567
 30
0.0
 10
17.8783778902
 20
13.4917356567
 30
0.0
 10
17.8908696169
 20
13.4946892407
 30
0.0
 10
17.9052609269
 20
13.5028098867
 30
0.0
 10
17.914569304
 20
13.510805023
 30
0.0
 10
17.9215568705
 20
13.5200854041
 30
0.0
 10
17.925733455
 20
13.530047858
 30
0.0
 10
17.9265370251
 20
13.538545966
 30
0.0
 10
17.9254238063
 20
13.5448207269
 30
0.0
 10
17.9243245924
 20
13.5477257063
 30
0.0
 10
17.9236512671
 20
13.549099048
 30
0.0
  0
SPLINE
  5
34A
100
AcDbEntity
  8
02___PRT_ALL_AXES
100
AcDbSpline
 62
7
  6
BYLAYER
 70
0
 71
3
 72
10
 73
6
 74
0
 42
0.0000001
 43
0.0000001
 44
0.0000000001
 40
0.0
 40
0.0
 40
0.0
 40
0.0
 40
0.5161344746
 40
0.7604943016
 40
1.0
 40
1.0
 40
1.0
 40
1.0
 10
17.4362765049
 20
13.5284541055
 30
0.0
 10
17.4373494704
 20
13.5319262231
 30
0.0
 10
17.4381531903
 20
13.5373730277
 30
0.0
 10
17.4371071991
 20
13.5443728234
 30
0.0
 10
17.4359227448
 20
13.5475990988
 30
0.0
 10
17.4351787795
 20
13.5491124914
 30
0.0
  0
SPLINE
  5
34B
100
AcDbEntity
  8
02___PRT_ALL_AXES
100
AcDbSpline
 62
7
  6
BYLAYER
 70
0
 71
3
 72
15
 73
11
 74
0
 42
0.0000001
 43
0.0000001
 44
0.0000000001
 40
0.0
 40
0.0
 40
0.0
 40
0.0
 40
0.2698240389
 40
0.4092446546
 40
0.5448668238
 40
0.6726306825
 40
0.7902103718
 40
0.8979727675
 40
0.9494028895
 40
1.0
 40
1.0
 40
1.0
 40
1.0
 10
17.510129966
 20
13.9071574839
 30
0.0
 10
17.5182865883
 20
13.9071574839
 30
0.0
 10
17.5307783149
 20
13.910111068
 30
0.0
 10
17.5451696249
 20
13.918231714
 30
0.0
 10
17.554478002
 20
13.9262268503
 30
0.0
 10
17.5614655686
 20
13.9355072313
 30
0.0
 10
17.565642153
 20
13.9454696853
 30
0.0
 10
17.5664457231
 20
13.9539677933
 30
0.0
 10
17.5653325043
 20
13.9602425542
 30
0.0
 10
17.5642332904
 20
13.9631475335
 30
0.0
 10
17.5635599651
 20
13.9645208752
 30
0.0
  0
SPLINE
  5
34C
100
AcDbEntity
  8
02___PRT_ALL_AXES
100
AcDbSpline
 62
7
  6
BYLAYER
 70
0
 71
3
 72
10
 73
6
 74
0
 42
0.0000001
 43
0.0000001
 44
0.0000000001
 40
0.0
 40
0.0
 40
0.0
 40
0.0
 40
0.5161344746
 40
0.7604943016
 40
1.0
 40
1.0
 40
1.0
 40
1.0
 10
18.053117915
 20
13.9438759328
 30
0.0
 10
18.0541908805
 20
13.9473480504
 30
0.0
 10
18.0549946004
 20
13.952794855
 30
0.0
 10
18.0539486093
 20
13.9597946507
 30
0.0
 10
18.052764155
 20
13.963020926
 30
0.0
 10
18.0520201896
 20
13.9645343186
 30
0.0
  0
SPLINE
  5
34D
100
AcDbEntity
  8
0
100
AcDbSpline
 62
7
  6
BYLAYER
 70
0
 71
3
 72
11
 73
7
 74
0
 42
0.0000001
 43
0.0000001
 44
0.0000000001
 40
0.0
 40
0.0
 40
0.0
 40
0.0
 40
0.2643559258
 40
0.5171099892
 40
0.760912027
 40
1.0
 40
1.0
 40
1.0
 40
1.0
 10
17.8742214122
 20
13.7361650192
 30
0.0
 10
17.876422651
 20
13.7432882303
 30
0.0
 10
17.8796456387
 20
13.7575934631
 30
0.0
 10
17.8806210456
 20
13.7791507821
 30
0.0
 10
17.8775565227
 20
13.7998038112
 30
0.0
 10
17.872823569
 20
13.8126957407
 30
0.0
 10
17.869854945
 20
13.8187500461
 30
0.0
  0
SPLINE
  5
34E
100
AcDbEntity
  8
0
100
AcDbSpline
 62
7
  6
BYLAYER
 70
0
 71
3
 72
28
 73
24
 74
0
 42
0.0000001
 43
0.0000001
 44
0.0000000001
 40
0.0
 40
0.0
 40
0.0
 40
0.0
 40
0.0649912613
 40
0.1342279858
 40
0.2067825956
 40
0.2816471911
 40
0.3577460416
 40
0.4339750915
 40
0.5092259219
 40
0.5824152306
 40
0.6525132176
 40
0.718574724
 40
0.7797745619
 40
0.8083438548
 40
0.8354673665
 40
0.8610968002
 40
0.8852060397
 40
0.9077891972
 40
0.9288712216
 40
0.9485087649
 40
0.9668016064
 40
0.983897395
 40
1.0
 40
1.0
 40
1.0
 40
1.0
 10
17.3561636673
 20
13.0291015614
 30
0.0
 10
17.3477571559
 20
13.0018980805
 30
0.0
 10
17.3325863347
 20
12.9450229837
 30
0.0
 10
17.314971267
 20
12.8561070112
 30
0.0
 10
17.3019905859
 20
12.7620300045
 30
0.0
 10
17.2938696499
 20
12.6643986017
 30
0.0
 10
17.2907510389
 20
12.5648707072
 30
0.0
 10
17.2926883998
 20
12.4651439631
 30
0.0
 10
17.2996483128
 20
12.3669175266
 30
0.0
 10
17.3115093071
 20
12.2718647286
 30
0.0
 10
17.3280647307
 20
12.1815981945
 30
0.0
 10
17.349028107
 20
12.0976515545
 30
0.0
 10
17.3703307552
 20
12.0327058261
 30
0.0
 10
17.3894720308
 20
11.9851894204
 30
0.0
 10
17.4043530637
 20
11.9528017977
 30
0.0
 10
17.4200292513
 20
11.9229798492
 30
0.0
 10
17.4364313549
 20
11.8958464544
 30
0.0
 10
17.453497452
 20
11.8715173143
 30
0.0
 10
17.4711559361
 20
11.8500912967
 30
0.0
 10
17.4893428691
 20
11.8316612528
 30
0.0
 10
17.5079917573
 20
11.8163056454
 30
0.0
 10
17.5270312198
 20
11.8041016263
 30
0.0
 10
17.5402804018
 20
11.797958399
 30
0.0
 10
17.5468907349
 20
11.7954945515
 30
0.0
  0
SPLINE
  5
34F
100
AcDbEntity
  8
0
100
AcDbSpline
 62
7
  6
BYLAYER
 70
0
 71
3
 72
19
 73
15
 74
0
 42
0.0000001
 43
0.0000001
 44
0.0000000001
 40
0.0
 40
0.0
 40
0.0
 40
0.0
 40
0.0507466238
 40
0.1026291671
 40
0.1566067647
 40
0.2133363373
 40
0.3356205211
 40
0.4012011376
 40
0.4690021666
 40
0.6081720301
 40
0.7469340009
 40
0.8142542038
 40
0.8792011141
 40
1.0
 40
1.0
 40
1.0
 40
1.0
 10
17.5331900067
 20
13.6535799922
 30
0.0
 10
17.5363529366
 20
13.6471294131
 30
0.0
 10
17.5442351982
 20
13.6347583796
 30
0.0
 10
17.5600109614
 20
13.6189591738
 30
0.0
 10
17.5793497024
 20
13.606201405
 30
0.0
 10
17.6098899106
 20
13.5933440795
 30
0.0
 10
17.6447750842
 20
13.5882447568
 30
0.0
 10
17.6809738653
 20
13.5901647353
 30
0.0
 10
17.7190411843
 20
13.5970390773
 30
0.0
 10
17.7653199551
 20
13.6143277235
 30
0.0
 10
17.8065256178
 20
13.6414672828
 30
0.0
 10
17.8343129861
 20
13.6680758266
 30
0.0
 10
17.8568580018
 20
13.6959794438
 30
0.0
 10
17.8691721726
 20
13.7198256738
 30
0.0
 10
17.8742214122
 20
13.7361650192
 30
0.0
  0
SPLINE
  5
350
100
AcDbEntity
  8
0
100
AcDbSpline
 62
7
  6
BYLAYER
 70
0
 71
3
 72
15
 73
11
 74
0
 42
0.0000001
 43
0.0000001
 44
0.0000000001
 40
0.0
 40
0.0
 40
0.0
 40
0.0
 40
0.1727354959
 40
0.3318978105
 40
0.4763624808
 40
0.6058446916
 40
0.7207723983
 40
0.8225759976
 40
0.9141485651
 40
1.0
 40
1.0
 40
1.0
 40
1.0
 10
18.272635404
 20
12.7085839215
 30
0.0
 10
18.2748219364
 20
12.7156595428
 30
0.0
 10
18.2794500131
 20
12.729129514
 30
0.0
 10
18.2875195874
 20
12.7479146885
 30
0.0
 10
18.296360245
 20
12.7642783071
 30
0.0
 10
18.3058697657
 20
12.7780230483
 30
0.0
 10
18.3159529429
 20
12.788996333
 30
0.0
 10
18.3265442731
 20
12.7970527735
 30
0.0
 10
18.3375617477
 20
12.8020343406
 30
0.0
 10
18.3452065385
 20
12.8031799883
 30
0.0
 10
18.3488872842
 20
12.8031812604
 30
0.0
  0
SPLINE
  5
351
100
AcDbEntity
  8
02___PRT_ALL_AXES
100
AcDbSpline
 62
7
  6
BYLAYER
 70
0
 71
3
 72
11
 73
7
 74
0
 42
0.0000001
 43
0.0000001
 44
0.0000000001
 40
0.0
 40
0.0
 40
0.0
 40
0.0
 40
0.3156806228
 40
0.5821591739
 40
0.8046012074
 40
1.0
 40
1.0
 40
1.0
 40
1.0
 10
18.2488675279
 20
12.9261781168
 30
0.0
 10
18.2496070533
 20
12.9246711225
 30
0.0
 10
18.2511461529
 20
12.9219691729
 30
0.0
 10
18.2539150651
 20
12.9186664332
 30
0.0
 10
18.2569411281
 20
12.9165406171
 30
0.0
 10
18.2591802084
 20
12.91602147
 30
0.0
 10
18.2602192639
 20
12.9160225924
 30
0.0
  0
SPLINE
  5
352
100
AcDbEntity
  8
02___PRT_ALL_AXES
100
AcDbSpline
 62
7
  6
BYLAYER
 70
0
 71
3
 72
23
 73
19
 74
0
 42
0.0000001
 43
0.0000001
 44
0.0000000001
 40
0.0
 40
0.0
 40
0.0
 40
0.0
 40
0.0801642308
 40
0.1060719752
 40
0.1344059679
 40
0.1980465955
 40
0.2699443014
 40
0.3482859732
 40
0.5150720386
 40
0.598626316
 40
0.6788849868
 40
0.7535224261
 40
0.8205466737
 40
0.8784849178
 40
0.9267314651
 40
0.9660994634
 40
0.9834418807
 40
1.0
 40
1.0
 40
1.0
 40
1.0
 10
18.1712819245
 20
12.7284332431
 30
0.0
 10
18.1685917517
 20
12.7276380685
 30
0.0
 10
18.1656889388
 20
12.7247530683
 30
0.0
 10
18.1631714456
 20
12.7208256315
 30
0.0
 10
18.161248952
 20
12.7171595976
 30
0.0
 10
18.1591846716
 20
12.7117959657
 30
0.0
 10
18.1572719053
 20
12.7045464519
 30
0.0
 10
18.1554274571
 20
12.6935963905
 30
0.0
 10
18.1548710218
 20
12.6820556654
 30
0.0
 10
18.155549178
 20
12.6704996818
 30
0.0
 10
18.1566782403
 20
12.6622224417
 30
0.0
 10
18.1583812351
 20
12.6546345767
 30
0.0
 10
18.1605960342
 20
12.6479950851
 30
0.0
 10
18.1632551476
 20
12.6425215552
 30
0.0
 10
18.1662685995
 20
12.6383762089
 30
0.0
 10
18.1692028201
 20
12.6360333884
 30
0.0
 10
18.1716254316
 20
12.6351339518
 30
0.0
 10
18.1728167041
 20
12.63499058
 30
0.0
 10
18.173396129
 20
12.6349923971
 30
0.0
  0
SPLINE
  5
353
100
AcDbEntity
  8
02___PRT_ALL_AXES
100
AcDbSpline
 62
7
  6
BYLAYER
 70
0
 71
3
 72
18
 73
14
 74
0
 42
0.0000001
 43
0.0000001
 44
0.0000000001
 40
0.0
 40
0.0
 40
0.0
 40
0.0
 40
0.1393852211
 40
0.2927819298
 40
0.4502785
 40
0.60149873
 40
0.736802521
 40
0.7960744217
 40
0.8488586442
 40
0.894900179
 40
0.9345235345
 40
0.9688231352
 40
1.0
 40
1.0
 40
1.0
 40
1.0
 10
18.175046444
 20
12.354591336
 30
0.0
 10
18.1739068153
 20
12.3509034961
 30
0.0
 10
18.1721649081
 20
12.3429524594
 30
0.0
 10
18.1709669119
 20
12.3305186532
 30
0.0
 10
18.1711096705
 20
12.3176961265
 30
0.0
 10
18.1725832451
 20
12.305465415
 30
0.0
 10
18.174905459
 20
12.2961341168
 30
0.0
 10
18.1774253445
 20
12.2897540177
 30
0.0
 10
18.179460396
 20
12.2858658216
 30
0.0
 10
18.1816926606
 20
12.2827300708
 30
0.0
 10
18.1840936631
 20
12.2803982651
 30
0.0
 10
18.186650773
 20
12.2789285806
 30
0.0
 10
18.188475541
 20
12.2785796213
 30
0.0
 10
18.1893389025
 20
12.2785785144
 30
0.0
  0
SPLINE
  5
354
100
AcDbEntity
  8
02___PRT_ALL_AXES
100
AcDbSpline
 62
7
  6
BYLAYER
 70
0
 71
3
 72
15
 73
11
 74
0
 42
0.0000001
 43
0.0000001
 44
0.0000000001
 40
0.0
 40
0.0
 40
0.0
 40
0.0
 40
0.1734563934
 40
0.3392725583
 40
0.4926163165
 40
0.6299720811
 40
0.7487638761
 40
0.8480145523
 40
0.9296139082
 40
1.0
 40
1.0
 40
1.0
 40
1.0
 10
18.2806495999
 20
12.0970808123
 30
0.0
 10
18.2807744533
 20
12.0942954291
 30
0.0
 10
18.2812112303
 20
12.088853715
 30
0.0
 10
18.2824353017
 20
12.081022441
 30
0.0
 10
18.2841835416
 20
12.0738847192
 30
0.0
 10
18.2863964131
 20
12.0676708628
 30
0.0
 10
18.2890025905
 20
12.0625629787
 30
0.0
 10
18.2919443574
 20
12.0587047223
 30
0.0
 10
18.2951964952
 20
12.0561953475
 30
0.0
 10
18.2976575378
 20
12.0555649139
 30
0.0
 10
18.2987889402
 20
12.0555661235
 30
0.0
  0
SPLINE
  5
355
100
AcDbEntity
  8
02___PRT_ALL_AXES
100
AcDbSpline
 62
7
  6
BYLAYER
 70
0
 71
3
 72
11
 73
7
 74
0
 42
0.0000001
 43
0.0000001
 44
0.0000000001
 40
0.0
 40
0.0
 40
0.0
 40
0.0
 40
0.3156806228
 40
0.5821591739
 40
0.8046012074
 40
1.0
 40
1.0
 40
1.0
 40
1.0
 10
18.4262304957
 20
12.1067478443
 30
0.0
 10
18.426970021
 20
12.1052408501
 30
0.0
 10
18.4285091207
 20
12.1025389004
 30
0.0
 10
18.4312780329
 20
12.0992361607
 30
0.0
 10
18.4343040959
 20
12.0971103447
 30
0.0
 10
18.4365431762
 20
12.0965911975
 30
0.0
 10
18.4375822317
 20
12.0965923199
 30
0.0
  0
SPLINE
  5
356
100
AcDbEntity
  8
02___PRT_ALL_AXES
100
AcDbSpline
 62
7
  6
BYLAYER
 70
0
 71
3
 72
23
 73
19
 74
0
 42
0.0000001
 43
0.0000001
 44
0.0000000001
 40
0.0
 40
0.0
 40
0.0
 40
0.0
 40
0.0801642308
 40
0.1060719752
 40
0.1344059679
 40
0.1980465955
 40
0.2699443014
 40
0.3482859732
 40
0.5150720386
 40
0.598626316
 40
0.6788849868
 40
0.7535224261
 40
0.8205466737
 40
0.8784849178
 40
0.9267314651
 40
0.9660994634
 40
0.9834418807
 40
1.0
 40
1.0
 40
1.0
 40
1.0
 10
18.5223350888
 20
12.4710646527
 30
0.0
 10
18.519644916
 20
12.4702694781
 30
0.0
 10
18.5167421031
 20
12.4673844779
 30
0.0
 10
18.5142246099
 20
12.463457041
 30
0.0
 10
18.5123021164
 20
12.4597910072
 30
0.0
 10
18.510237836
 20
12.4544273753
 30
0.0
 10
18.5083250697
 20
12.4471778615
 30
0.0
 10
18.5064806215
 20
12.4362278
 30
0.0
 10
18.5059241861
 20
12.4246870749
 30
0.0
 10
18.5066023424
 20
12.4131310913
 30
0.0
 10
18.5077314047
 20
12.4048538513
 30
0.0
 10
18.5094343994
 20
12.3972659863
 30
0.0
 10
18.5116491986
 20
12.3906264947
 30
0.0
 10
18.5143083119
 20
12.3851529648
 30
0.0
 10
18.5173217639
 20
12.3810076185
 30
0.0
 10
18.5202559845
 20
12.3786647979
 30
0.0
 10
18.522678596
 20
12.3777653614
 30
0.0
 10
18.5238698684
 20
12.3776219896
 30
0.0
 10
18.5244492934
 20
12.3776238067
 30
0.0
  0
SPLINE
  5
357
100
AcDbEntity
  8
02___PRT_ALL_AXES
100
AcDbSpline
 62
7
  6
BYLAYER
 70
0
 71
3
 72
18
 73
14
 74
0
 42
0.0000001
 43
0.0000001
 44
0.0000000001
 40
0.0
 40
0.0
 40
0.0
 40
0.0
 40
0.1393852211
 40
0.2927819298
 40
0.4502785
 40
0.60149873
 40
0.736802521
 40
0.7960744217
 40
0.8488586442
 40
0.894900179
 40
0.9345235345
 40
0.9688231352
 40
1.0
 40
1.0
 40
1.0
 40
1.0
 10
18.4941476224
 20
12.8100474574
 30
0.0
 10
18.4930079937
 20
12.8063596175
 30
0.0
 10
18.4912660865
 20
12.7984085808
 30
0.0
 10
18.4900680902
 20
12.7859747746
 30
0.0
 10
18.4902108488
 20
12.7731522479
 30
0.0
 10
18.4916844235
 20
12.7609215364
 30
0.0
 10
18.4940066373
 20
12.7515902382
 30
0.0
 10
18.4965265228
 20
12.7452101391
 30
0.0
 10
18.4985615744
 20
12.741321943
 30
0.0
 10
18.5007938389
 20
12.7381861922
 30
0.0
 10
18.5031948414
 20
12.7358543865
 30
0.0
 10
18.5057519514
 20
12.734384702
 30
0.0
 10
18.5075767193
 20
12.7340357427
 30
0.0
 10
18.5084400809
 20
12.7340346358
 30
0.0
  0
SPLINE
  5
358
100
AcDbEntity
  8
02___PRT_ALL_AXES
100
AcDbSpline
 62
7
  6
BYLAYER
 70
0
 71
3
 72
15
 73
11
 74
0
 42
0.0000001
 43
0.0000001
 44
0.0000000001
 40
0.0
 40
0.0
 40
0.0
 40
0.0
 40
0.1734563934
 40
0.3392725583
 40
0.4926163165
 40
0.6299720811
 40
0.7487638761
 40
0.8480145523
 40
0.9296139082
 40
1.0
 40
1.0
 40
1.0
 40
1.0
 10
18.3808736498
 20
12.9985616266
 30
0.0
 10
18.3809985031
 20
12.9957762434
 30
0.0
 10
18.3814352801
 20
12.9903345293
 30
0.0
 10
18.3826593515
 20
12.9825032553
 30
0.0
 10
18.3844075914
 20
12.9753655336
 30
0.0
 10
18.386620463
 20
12.9691516772
 30
0.0
 10
18.3892266404
 20
12.9640437931
 30
0.0
 10
18.3921684073
 20
12.9601855366
 30
0.0
 10
18.3954205451
 20
12.9576761619
 30
0.0
 10
18.3978815876
 20
12.9570457282
 30
0.0
 10
18.39901299
 20
12.9570469378
 30
0.0
  0
SPLINE
  5
359
100
AcDbEntity
  8
02___PRT_ALL_AXES
100
AcDbSpline
 62
7
  6
BYLAYER
 70
0
 71
3
 72
17
 73
13
 74
0
 42
0.0000001
 43
0.0000001
 44
0.0000000001
 40
0.0
 40
0.0
 40
0.0
 40
0.0
 40
0.050785639
 40
0.1027115068
 40
0.2130418717
 40
0.3354275365
 40
0.4686469943
 40
0.6079206891
 40
0.67794138
 40
0.747024586
 40
0.879108976
 40
1.0
 40
1.0
 40
1.0
 40
1.0
 10
17.9678661722
 20
13.923217547
 30
0.0
 10
17.9686584229
 20
13.921605931
 30
0.0
 10
17.9706309764
 20
13.9185148473
 30
0.0
 10
17.9759887091
 20
13.9131473284
 30
0.0
 10
17.9851703779
 20
13.9084266352
 30
0.0
 10
17.9981548443
 20
13.9065525636
 30
0.0
 10
18.0121535029
 20
13.9082825736
 30
0.0
 10
18.0236054229
 20
13.9125641964
 30
0.0
 10
18.0321283894
 20
13.9175264734
 30
0.0
 10
18.0398153639
 20
13.9232903552
 30
0.0
 10
18.0476752172
 20
13.9316943979
 30
0.0
 10
18.0518557916
 20
13.9397916999
 30
0.0
 10
18.053117915
 20
13.9438759328
 30
0.0
  0
SPLINE
  5
35A
100
AcDbEntity
  8
02___PRT_ALL_AXES
100
AcDbSpline
 62
7
  6
BYLAYER
 70
0
 71
3
 72
11
 73
7
 74
0
 42
0.0000001
 43
0.0000001
 44
0.0000000001
 40
0.0
 40
0.0
 40
0.0
 40
0.0
 40
0.2268632804
 40
0.4650145788
 40
0.722100556
 40
1.0
 40
1.0
 40
1.0
 40
1.0
 10
17.4793936846
 20
13.9232309904
 30
0.0
 10
17.4806068875
 20
13.9207564922
 30
0.0
 10
17.4840014816
 20
13.9160851291
 30
0.0
 10
17.4912631599
 20
13.9109362401
 30
0.0
 10
17.5002265759
 20
13.9078050418
 30
0.0
 10
17.5067540826
 20
13.9071574839
 30
0.0
 10
17.510129966
 20
13.9071574839
 30
0.0
  0
SPLINE
  5
35B
100
AcDbEntity
  8
02___PRT_ALL_AXES
100
AcDbSpline
 62
7
  6
BYLAYER
 70
0
 71
3
 72
17
 73
13
 74
0
 42
0.0000001
 43
0.0000001
 44
0.0000000001
 40
0.0
 40
0.0
 40
0.0
 40
0.0
 40
0.050785639
 40
0.1027115068
 40
0.2130418717
 40
0.3354275365
 40
0.4686469943
 40
0.6079206891
 40
0.67794138
 40
0.747024586
 40
0.879108976
 40
1.0
 40
1.0
 40
1.0
 40
1.0
 10
17.3510247621
 20
13.5077957197
 30
0.0
 10
17.3518170128
 20
13.5061841037
 30
0.0
 10
17.3537895662
 20
13.50309302
 30
0.0
 10
17.3591472989
 20
13.4977255011
 30
0.0
 10
17.3683289677
 20
13.493004808
 30
0.0
 10
17.3813134341
 20
13.4911307363
 30
0.0
 10
17.3953120928
 20
13.4928607464
 30
0.0
 10
17.4067640127
 20
13.4971423691
 30
0.0
 10
17.4152869793
 20
13.5021046461
 30
0.0
 10
17.4229739538
 20
13.5078685279
 30
0.0
 10
17.4308338071
 20
13.5162725706
 30
0.0
 10
17.4350143814
 20
13.5243698726
 30
0.0
 10
17.4362765049
 20
13.5284541055
 30
0.0
  0
SPLINE
  5
35C
100
AcDbEntity
  8
02___PRT_ALL_AXES
100
AcDbSpline
 62
7
  6
BYLAYER
 70
0
 71
3
 72
11
 73
7
 74
0
 42
0.0000001
 43
0.0000001
 44
0.0000000001
 40
0.0
 40
0.0
 40
0.0
 40
0.0
 40
0.2268632804
 40
0.4650145788
 40
0.722100556
 40
1.0
 40
1.0
 40
1.0
 40
1.0
 10
17.8394849866
 20
13.5078091631
 30
0.0
 10
17.8406981895
 20
13.5053346649
 30
0.0
 10
17.8440927836
 20
13.5006633018
 30
0.0
 10
17.8513544619
 20
13.4955144129
 30
0.0
 10
17.8603178778
 20
13.4923832146
 30
0.0
 10
17.8668453846
 20
13.4917356567
 30
0.0
 10
17.8702212679
 20
13.4917356567
 30
0.0
  0
SPLINE
  5
35D
100
AcDbEntity
  8
0
100
AcDbSpline
 62
7
  6
BYLAYER
 70
0
 71
3
 72
14
 73
10
 74
0
 42
0.0000001
 43
0.0000001
 44
0.0000000001
 40
0.0
 40
0.0
 40
0.0
 40
0.0
 40
0.1149688958
 40
0.2311127348
 40
0.3495166677
 40
0.4711122329
 40
0.5966236021
 40
0.7265260854
 40
1.0
 40
1.0
 40
1.0
 40
1.0
 10
17.3116022278
 20
13.4667128686
 30
0.0
 10
17.3168813049
 20
13.4559571334
 30
0.0
 10
17.3291096865
 20
13.4350876343
 30
0.0
 10
17.3519907074
 20
13.4065918238
 30
0.0
 10
17.3791709317
 20
13.3811405662
 30
0.0
 10
17.4103209914
 20
13.3590294883
 30
0.0
 10
17.4450836318
 20
13.3404973396
 30
0.0
 10
17.4965404789
 20
13.320479721
 30
0.0
 10
17.5381194067
 20
13.3119596791
 30
0.0
 10
17.5664501947
 20
13.3088591914
 30
0.0
  0
SPLINE
  5
35E
100
AcDbEntity
  8
0
100
AcDbSpline
 62
7
  6
BYLAYER
 70
0
 71
3
 72
21
 73
17
 74
0
 42
0.0000001
 43
0.0000001
 44
0.0000000001
 40
0.0
 40
0.0
 40
0.0
 40
0.0
 40
0.0504633651
 40
0.101756664
 40
0.1546128654
 40
0.209594435
 40
0.2670558917
 40
0.3271392014
 40
0.3897895952
 40
0.4547818999
 40
0.5217511307
 40
0.5902255021
 40
0.729282825
 40
0.7988280091
 40
0.8675166475
 40
1.0
 40
1.0
 40
1.0
 40
1.0
 10
18.1532137021
 20
13.8797411509
 30
0.0
 10
18.1599534455
 20
13.8660094147
 30
0.0
 10
18.1709455315
 20
13.8369604224
 30
0.0
 10
18.1791825421
 20
13.7905732415
 30
0.0
 10
18.1791292661
 20
13.742098667
 30
0.0
 10
18.1708356008
 20
13.6924745604
 30
0.0
 10
18.1545118674
 20
13.6426005568
 30
0.0
 10
18.130493468
 20
13.5933684903
 30
0.0
 10
18.0992385046
 20
13.5456502668
 30
0.0
 10
18.0613259869
 20
13.5002952334
 30
0.0
 10
18.0174414132
 20
13.458104749
 30
0.0
 10
17.951748137
 20
13.4068578588
 30
0.0
 10
17.8780195879
 20
13.3653068564
 30
0.0
 10
17.7994731545
 20
13.3350631751
 30
0.0
 10
17.7202754156
 20
13.3132604862
 30
0.0
 10
17.6590980022
 20
13.3060425208
 30
0.0
 10
17.6189393758
 20
13.3060425208
 30
0.0
  0
SPLINE
  5
35F
100
AcDbEntity
  8
0
100
AcDbSpline
 62
7
  6
BYLAYER
 70
0
 71
3
 72
17
 73
13
 74
0
 42
0.0000001
 43
0.0000001
 44
0.0000000001
 40
0.0
 40
0.0
 40
0.0
 40
0.0
 40
0.1727218882
 40
0.2540814842
 40
0.3318557695
 40
0.476281686
 40
0.6057411659
 40
0.7206307207
 40
0.8224070564
 40
0.9139540253
 40
0.9573486794
 40
1.0
 40
1.0
 40
1.0
 40
1.0
 10
18.0633285227
 20
12.9028370366
 30
0.0
 10
18.068249475
 20
12.9187612439
 30
0.0
 10
18.0762236887
 20
12.9419746898
 30
0.0
 10
18.0883515336
 20
12.9716206544
 30
0.0
 10
18.1005584499
 20
12.998255627
 30
0.0
 10
18.1167179478
 20
13.0281612166
 30
0.0
 10
18.1381129271
 20
13.0590898568
 30
0.0
 10
18.1608125552
 20
13.0837762927
 30
0.0
 10
18.1846271406
 20
13.1019058681
 30
0.0
 10
18.2056984808
 20
13.1114005358
 30
0.0
 10
18.2224875537
 20
13.1150759978
 30
0.0
 10
18.2308034664
 20
13.1156807114
 30
0.0
 10
18.2349192091
 20
13.1156803742
 30
0.0
  0
SPLINE
  5
360
100
AcDbEntity
  8
0
100
AcDbSpline
 62
7
  6
BYLAYER
 70
0
 71
3
 72
28
 73
24
 74
0
 42
0.0000001
 43
0.0000001
 44
0.0000000001
 40
0.0
 40
0.0
 40
0.0
 40
0.0
 40
0.0673782762
 40
0.1393891274
 40
0.2149116234
 40
0.2927494292
 40
0.3716170765
 40
0.4502071462
 40
0.5272175557
 40
0.6013927846
 40
0.6715636375
 40
0.7366916216
 40
0.7959224504
 40
0.8231381145
 40
0.8486826087
 40
0.8725391838
 40
0.8947260852
 40
0.9152986839
 40
0.9343669104
 40
0.9520971503
 40
0.9687282782
 40
0.9845709559
 40
1.0
 40
1.0
 40
1.0
 40
1.0
 10
18.0633285227
 20
12.9028370366
 30
0.0
 10
18.056712713
 20
12.8814282685
 30
0.0
 10
18.0448749556
 20
12.8365555803
 30
0.0
 10
18.0314329454
 20
12.7663121912
 30
0.0
 10
18.0219035612
 20
12.6919246144
 30
0.0
 10
18.0164730236
 20
12.6148451239
 30
0.0
 10
18.0152525646
 20
12.5365649175
 30
0.0
 10
18.0182650242
 20
12.4586083388
 30
0.0
 10
18.0254512032
 20
12.382490003
 30
0.0
 10
18.0366676008
 20
12.3096880054
 30
0.0
 10
18.0516909266
 20
12.2416065678
 30
0.0
 10
18.0702245659
 20
12.179559904
 30
0.0
 10
18.0887843272
 20
12.132596802
 30
0.0
 10
18.1052843902
 20
12.0991858662
 30
0.0
 10
18.1179440444
 20
12.077052426
 30
0.0
 10
18.1311801449
 20
12.0572372045
 30
0.0
 10
18.1449295431
 20
12.0398312327
 30
0.0
 10
18.1591387589
 20
12.0249220348
 30
0.0
 10
18.1737440677
 20
12.0125785742
 30
0.0
 10
18.1886925216
 20
12.0028735614
 30
0.0
 10
18.2039227473
 20
11.9958705634
 30
0.0
 10
18.2193557786
 20
11.9916320195
 30
0.0
 10
18.22977877
 20
11.9906829051
 30
0.0
 10
18.2349099363
 20
11.9906824846
 30
0.0
  0
SPLINE
  5
361
100
AcDbEntity
  8
02___PRT_ALL_AXES
100
AcDbSpline
 62
7
  6
BYLAYER
 70
0
 71
3
 72
17
 73
13
 74
0
 42
0.0000001
 43
0.0000001
 44
0.0000000001
 40
0.0
 40
0.0
 40
0.0
 40
0.0
 40
0.0328478074
 40
0.0676279268
 40
0.1059114104
 40
0.148752321
 40
0.2498936423
 40
0.3721854089
 40
0.5131913382
 40
0.6685235917
 40
0.8329156281
 40
1.0
 40
1.0
 40
1.0
 40
1.0
 10
18.3990028012
 20
13.0507967354
 30
0.0
 10
18.3983572401
 20
13.0507960452
 30
0.0
 10
18.3970224396
 20
13.0506079827
 30
0.0
 10
18.395086804
 20
13.0497927984
 30
0.0
 10
18.3932164671
 20
13.0484668129
 30
0.0
 10
18.390689503
 20
13.0459084296
 30
0.0
 10
18.3878539529
 20
13.0414496804
 30
0.0
 10
18.3851050895
 20
13.0348145698
 30
0.0
 10
18.3829382392
 20
13.0268582056
 30
0.0
 10
18.3814475624
 20
13.0179142231
 30
0.0
 10
18.3807043435
 20
13.0083650444
 30
0.0
 10
18.3807266061
 20
13.0018420598
 30
0.0
 10
18.3808736498
 20
12.9985616266
 30
0.0
  0
SPLINE
  5
362
100
AcDbEntity
  8
02___PRT_ALL_AXES
100
AcDbSpline
 62
7
  6
BYLAYER
 70
0
 71
3
 72
13
 73
9
 74
0
 42
0.0000001
 43
0.0000001
 44
0.0000000001
 40
0.0
 40
0.0
 40
0.0
 40
0.0
 40
0.0859159704
 40
0.1775515467
 40
0.2793768109
 40
0.3943308344
 40
0.6682047645
 40
1.0
 40
1.0
 40
1.0
 40
1.0
 10
18.5084528389
 20
12.8277843445
 30
0.0
 10
18.5077624269
 20
12.8277852296
 30
0.0
 10
18.5063282296
 20
12.8275709034
 30
0.0
 10
18.5042618057
 20
12.8266378145
 30
0.0
 10
18.5022739069
 20
12.8251296917
 30
0.0
 10
18.4995965857
 20
12.8222137179
 30
0.0
 10
18.4966457035
 20
12.8171667949
 30
0.0
 10
18.4949348331
 20
12.8125948721
 30
0.0
 10
18.4941476224
 20
12.8100474574
 30
0.0
  0
SPLINE
  5
363
100
AcDbEntity
  8
02___PRT_ALL_AXES
100
AcDbSpline
 62
7
  6
BYLAYER
 70
0
 71
3
 72
20
 73
16
 74
0
 42
0.0000001
 43
0.0000001
 44
0.0000000001
 40
0.0
 40
0.0
 40
0.0
 40
0.0
 40
0.0313821286
 40
0.0665190451
 40
0.1078616079
 40
0.1565013247
 40
0.2125273193
 40
0.2754533903
 40
0.3443437252
 40
0.4180146626
 40
0.5738942688
 40
0.7308681214
 40
0.8764342002
 40
0.9415731979
 40
1.0
 40
1.0
 40
1.0
 40
1.0
 10
18.4375724775
 20
12.1903402665
 30
0.0
 10
18.4366182936
 20
12.1903392357
 30
0.0
 10
18.4345811225
 20
12.1899078008
 30
0.0
 10
18.4317797215
 20
12.188110013
 30
0.0
 10
18.4291793359
 20
12.1852943384
 30
0.0
 10
18.4268007718
 20
12.1815250964
 30
0.0
 10
18.4246738345
 20
12.1768819554
 30
0.0
 10
18.4228481514
 20
12.1714614361
 30
0.0
 10
18.4213609545
 20
12.1653864
 30
0.0
 10
18.41985477
 20
12.1564317295
 30
0.0
 10
18.4190522383
 20
12.1446730689
 30
0.0
 10
18.4197258009
 20
12.1307235636
 30
0.0
 10
18.4216380613
 20
12.1196648771
 30
0.0
 10
18.4240141832
 20
12.1118254796
 30
0.0
 10
18.4254478772
 20
12.108342653
 30
0.0
 10
18.4262304957
 20
12.1067478443
 30
0.0
  0
SPLINE
  5
364
100
AcDbEntity
  8
02___PRT_ALL_AXES
100
AcDbSpline
 62
7
  6
BYLAYER
 70
0
 71
3
 72
17
 73
13
 74
0
 42
0.0000001
 43
0.0000001
 44
0.0000000001
 40
0.0
 40
0.0
 40
0.0
 40
0.0
 40
0.0328478074
 40
0.0676279268
 40
0.1059114104
 40
0.148752321
 40
0.2498936423
 40
0.3721854089
 40
0.5131913382
 40
0.6685235917
 40
0.8329156281
 40
1.0
 40
1.0
 40
1.0
 40
1.0
 10
18.2987787514
 20
12.149315921
 30
0.0
 10
18.2981331903
 20
12.1493152309
 30
0.0
 10
18.2967983898
 20
12.1491271683
 30
0.0
 10
18.2948627542
 20
12.148311984
 30
0.0
 10
18.2929924172
 20
12.1469859986
 30
0.0
 10
18.2904654532
 20
12.1444276152
 30
0.0
 10
18.287629903
 20
12.1399688661
 30
0.0
 10
18.2848810397
 20
12.1333337555
 30
0.0
 10
18.2827141893
 20
12.1253773912
 30
0.0
 10
18.2812235125
 20
12.1164334087
 30
0.0
 10
18.2804802937
 20
12.10688423
 30
0.0
 10
18.2805025563
 20
12.1003612455
 30
0.0
 10
18.2806495999
 20
12.0970808123
 30
0.0
  0
SPLINE
  5
365
100
AcDbEntity
  8
02___PRT_ALL_AXES
100
AcDbSpline
 62
7
  6
BYLAYER
 70
0
 71
3
 72
13
 73
9
 74
0
 42
0.0000001
 43
0.0000001
 44
0.0000000001
 40
0.0
 40
0.0
 40
0.0
 40
0.0
 40
0.0859159704
 40
0.1775515467
 40
0.2793768109
 40
0.3943308344
 40
0.6682047645
 40
1.0
 40
1.0
 40
1.0
 40
1.0
 10
18.1893516605
 20
12.3723282231
 30
0.0
 10
18.1886612485
 20
12.3723291082
 30
0.0
 10
18.1872270512
 20
12.372114782
 30
0.0
 10
18.1851606273
 20
12.3711816931
 30
0.0
 10
18.1831727285
 20
12.3696735703
 30
0.0
 10
18.1804954073
 20
12.3667575965
 30
0.0
 10
18.1775445252
 20
12.3617106735
 30
0.0
 10
18.1758336547
 20
12.3571387507
 30
0.0
 10
18.175046444
 20
12.354591336
 30
0.0
  0
SPLINE
  5
366
100
AcDbEntity
  8
02___PRT_ALL_AXES
100
AcDbSpline
 62
7
  6
BYLAYER
 70
0
 71
3
 72
20
 73
16
 74
0
 42
0.0000001
 43
0.0000001
 44
0.0000000001
 40
0.0
 40
0.0
 40
0.0
 40
0.0
 40
0.0313821286
 40
0.0665190451
 40
0.1078616079
 40
0.1565013247
 40
0.2125273193
 40
0.2754533903
 40
0.3443437252
 40
0.4180146626
 40
0.5738942688
 40
0.7308681214
 40
0.8764342002
 40
0.9415731979
 40
1.0
 40
1.0
 40
1.0
 40
1.0
 10
18.2602095097
 20
13.009770539
 30
0.0
 10
18.2592553258
 20
13.0097695082
 30
0.0
 10
18.2572181547
 20
13.0093380733
 30
0.0
 10
18.2544167537
 20
13.0075402855
 30
0.0
 10
18.2518163681
 20
13.0047246109
 30
0.0
 10
18.249437804
 20
13.0009553689
 30
0.0
 10
18.2473108668
 20
12.9963122279
 30
0.0
 10
18.2454851836
 20
12.9908917086
 30
0.0
 10
18.2439979867
 20
12.9848166725
 30
0.0
 10
18.2424918023
 20
12.975862002
 30
0.0
 10
18.2416892705
 20
12.9641033414
 30
0.0
 10
18.2423628331
 20
12.9501538361
 30
0.0
 10
18.2442750935
 20
12.9390951496
 30
0.0
 10
18.2466512154
 20
12.9312557521
 30
0.0
 10
18.2480849094
 20
12.9277729255
 30
0.0
 10
18.2488675279
 20
12.9261781168
 30
0.0
  0
SPLINE
  5
367
100
AcDbEntity
  8
0
100
AcDbSpline
 62
7
  6
BYLAYER
 70
0
 71
3
 72
28
 73
24
 74
0
 42
0.0000001
 43
0.0000001
 44
0.0000000001
 40
0.0
 40
0.0
 40
0.0
 40
0.0
 40
0.0154290441
 40
0.0312717218
 40
0.0479028497
 40
0.0656330896
 40
0.0847013161
 40
0.1052739148
 40
0.1274608162
 40
0.1513173913
 40
0.1768618855
 40
0.2040775496
 40
0.2633083784
 40
0.3284363625
 40
0.3986072154
 40
0.4727824443
 40
0.5497928538
 40
0.6283829235
 40
0.7072505708
 40
0.7850883766
 40
0.8606108726
 40
0.9326217238
 40
1.0
 40
1.0
 40
1.0
 40
1.0
 10
18.3489005071
 20
13.1156803742
 30
0.0
 10
18.3540316734
 20
13.1156799538
 30
0.0
 10
18.3644546648
 20
13.1147308394
 30
0.0
 10
18.3798876962
 20
13.1104922955
 30
0.0
 10
18.3951179218
 20
13.1034892974
 30
0.0
 10
18.4100663757
 20
13.0937842847
 30
0.0
 10
18.4246716845
 20
13.081440824
 30
0.0
 10
18.4388809003
 20
13.0665316262
 30
0.0
 10
18.4526302985
 20
13.0491256544
 30
0.0
 10
18.465866399
 20
13.0293104328
 30
0.0
 10
18.4785260532
 20
13.0071769927
 30
0.0
 10
18.4950261162
 20
12.9737660568
 30
0.0
 10
18.5135858775
 20
12.9268029548
 30
0.0
 10
18.5321195168
 20
12.8647562911
 30
0.0
 10
18.5471428426
 20
12.7966748535
 30
0.0
 10
18.5583592402
 20
12.7238728558
 30
0.0
 10
18.5655454192
 20
12.6477545201
 30
0.0
 10
18.5685578788
 20
12.5697979413
 30
0.0
 10
18.5673374198
 20
12.4915177349
 30
0.0
 10
18.5619068822
 20
12.4144382444
 30
0.0
 10
18.552377498
 20
12.3400506677
 30
0.0
 10
18.5389354878
 20
12.2698072785
 30
0.0
 10
18.5270977304
 20
12.2249345903
 30
0.0
 10
18.5204819207
 20
12.2035258223
 30
0.0
  0
SPLINE
  5
368
100
AcDbEntity
  8
0
100
AcDbSpline
 62
7
  6
BYLAYER
 70
0
 71
3
 72
17
 73
13
 74
0
 42
0.0000001
 43
0.0000001
 44
0.0000000001
 40
0.0
 40
0.0
 40
0.0
 40
0.0
 40
0.0426513206
 40
0.0860459747
 40
0.1775929436
 40
0.2793692793
 40
0.3942588341
 40
0.523718314
 40
0.6681442305
 40
0.7459185158
 40
0.8272781118
 40
1.0
 40
1.0
 40
1.0
 40
1.0
 10
18.3488912343
 20
11.9906824846
 30
0.0
 10
18.353006977
 20
11.9906821474
 30
0.0
 10
18.3613228897
 20
11.991286861
 30
0.0
 10
18.3781119626
 20
11.994962323
 30
0.0
 10
18.3991833028
 20
12.0044569907
 30
0.0
 10
18.4229978882
 20
12.0225865661
 30
0.0
 10
18.4456975163
 20
12.0472730021
 30
0.0
 10
18.4670924956
 20
12.0782016422
 30
0.0
 10
18.4832519935
 20
12.1081072319
 30
0.0
 10
18.4954589098
 20
12.1347422045
 30
0.0
 10
18.5075867547
 20
12.1643881691
 30
0.0
 10
18.5155609684
 20
12.1876016149
 30
0.0
 10
18.5204819207
 20
12.2035258223
 30
0.0
  0
SPLINE
  5
369
100
AcDbEntity
  8
0
100
AcDbSpline
 62
7
  6
BYLAYER
 70
0
 71
3
 72
25
 73
21
 74
0
 42
0.0000001
 43
0.0000001
 44
0.0000000001
 40
0.0
 40
0.0
 40
0.0
 40
0.0
 40
0.0154314814
 40
0.0312761461
 40
0.0655508911
 40
0.0846198278
 40
0.1051942799
 40
0.1512044473
 40
0.203945943
 40
0.2631839107
 40
0.3283203954
 40
0.3985019385
 40
0.4726894734
 40
0.5497126393
 40
0.6283157094
 40
0.707198049
 40
0.7850501807
 40
0.8605830016
 40
0.9326149855
 40
1.0
 40
1.0
 40
1.0
 40
1.0
 10
18.3489044572
 20
12.3031815985
 30
0.0
 10
18.3466238709
 20
12.3031808103
 30
0.0
 10
18.3419909776
 20
12.3036031466
 30
0.0
 10
18.3326075789
 20
12.3061749022
 30
0.0
 10
18.3235782253
 20
12.3113319326
 30
0.0
 10
18.3152281003
 20
12.3183899546
 30
0.0
 10
18.3064778888
 20
12.3275713327
 30
0.0
 10
18.296203004
 20
12.3420074031
 30
0.0
 10
18.2853439864
 20
12.362733469
 30
0.0
 10
18.2757045982
 20
12.3871134059
 30
0.0
 10
18.2674663047
 20
12.4146914259
 30
0.0
 10
18.2607881845
 20
12.4449497697
 30
0.0
 10
18.2558026557
 20
12.4773074173
 30
0.0
 10
18.2526081982
 20
12.5111389578
 30
0.0
 10
18.2512683449
 20
12.5457878373
 30
0.0
 10
18.2518101632
 20
12.5805808194
 30
0.0
 10
18.2542239395
 20
12.6148397717
 30
0.0
 10
18.2584589209
 20
12.647903487
 30
0.0
 10
18.2644340646
 20
12.6791241981
 30
0.0
 10
18.2696951268
 20
12.6990691809
 30
0.0
 10
18.272635404
 20
12.7085839215
 30
0.0
  0
SPLINE
  5
36A
100
AcDbEntity
  8
0
100
AcDbSpline
 62
7
  6
BYLAYER
 70
0
 71
3
 72
15
 73
11
 74
0
 42
0.0000001
 43
0.0000001
 44
0.0000000001
 40
0.0
 40
0.0
 40
0.0
 40
0.0
 40
0.0878884352
 40
0.1841989804
 40
0.2909070302
 40
0.4091445024
 40
0.5393766052
 40
0.6815749668
 40
0.8353821842
 40
1.0
 40
1.0
 40
1.0
 40
1.0
 10
17.5490408195
 20
13.3116490186
 30
0.0
 10
17.5393005865
 20
13.3082053257
 30
0.0
 10
17.519688121
 20
13.2986029801
 30
0.0
 10
17.4922346013
 20
13.2779615001
 30
0.0
 10
17.4657980631
 20
13.2508234942
 30
0.0
 10
17.4405631736
 20
13.2174542371
 30
0.0
 10
17.4167038568
 20
13.1781400044
 30
0.0
 10
17.3944128218
 20
13.1332119415
 30
0.0
 10
17.3738853586
 20
13.0830669926
 30
0.0
 10
17.3618768321
 20
13.0475893697
 30
0.0
 10
17.3561636673
 20
13.0291015614
 30
0.0
  0
SPLINE
  5
36B
100
AcDbEntity
  8
0
100
AcDbSpline
 62
7
  6
BYLAYER
 70
0
 71
3
 72
9
 73
5
 74
0
 42
0.0000001
 43
0.0000001
 44
0.0000000001
 40
0.0
 40
0.0
 40
0.0
 40
0.0
 40
0.4905465199
 40
1.0
 40
1.0
 40
1.0
 40
1.0
 10
18.1076175584
 20
13.4051768836
 30
0.0
 10
18.1172985583
 20
13.3854490799
 30
0.0
 10
18.1357918452
 20
13.3446159171
 30
0.0
 10
18.1520529233
 20
13.3028514477
 30
0.0
 10
18.1598217777
 20
13.2813922916
 30
0.0
  0
SPLINE
  5
36C
100
AcDbEntity
  8
0
100
AcDbSpline
 62
7
  6
BYLAYER
 70
0
 71
3
 72
11
 73
7
 74
0
 42
0.0000001
 43
0.0000001
 44
0.0000000001
 40
0.0
 40
0.0
 40
0.0
 40
0.0
 40
0.2777943688
 40
0.5359512557
 40
0.7756916718
 40
1.0
 40
1.0
 40
1.0
 40
1.0
 10
18.2492509191
 20
13.1158926009
 30
0.0
 10
18.2409971595
 20
13.137426501
 30
0.0
 10
18.2235584439
 20
13.1784205579
 30
0.0
 10
18.1931111452
 20
13.235280917
 30
0.0
 10
18.1591636506
 20
13.2848578842
 30
0.0
 10
18.1331602045
 20
13.3135293989
 30
0.0
 10
18.1194870198
 20
13.3261704615
 30
0.0
  0
SPLINE
  5
36D
100
AcDbEntity
  8
0
100
AcDbSpline
 62
7
  6
BYLAYER
 70
0
 71
3
 72
9
 73
5
 74
0
 42
0.0000001
 43
0.0000001
 44
0.0000000001
 40
0.0
 40
0.0
 40
0.0
 40
0.0
 40
0.2532654124
 40
1.0
 40
1.0
 40
1.0
 40
1.0
 10
18.1178424223
 20
13.3276800935
 30
0.0
 10
18.1150944999
 20
13.3301844715
 30
0.0
 10
18.1040690611
 20
13.3398771934
 30
0.0
 10
18.0923121397
 20
13.3487487533
 30
0.0
 10
18.0831535411
 20
13.3547725698
 30
0.0
  0
SPLINE
  5
36E
100
AcDbEntity
  8
0
100
AcDbSpline
 62
7
  6
BYLAYER
 70
0
 71
3
 72
19
 73
15
 74
0
 42
0.0000001
 43
0.0000001
 44
0.0000000001
 40
0.0
 40
0.0
 40
0.0
 40
0.0
 40
0.0627624665
 40
0.1261122849
 40
0.1899028955
 40
0.253999639
 40
0.3181838742
 40
0.3822413666
 40
0.445960606
 40
0.5091895789
 40
0.6336315572
 40
0.7558599601
 40
0.8772684069
 40
1.0
 40
1.0
 40
1.0
 40
1.0
 10
17.953594021
 20
11.7165211537
 30
0.0
 10
17.9431353871
 20
11.7110858307
 30
0.0
 10
17.9215613723
 20
11.7011973259
 30
0.0
 10
17.8876909681
 20
11.6898215289
 30
0.0
 10
17.8525295332
 20
11.6821492632
 30
0.0
 10
17.8165707296
 20
11.6784597471
 30
0.0
 10
17.7803739913
 20
11.6788565592
 30
0.0
 10
17.744528157
 20
11.683350295
 30
0.0
 10
17.7095832249
 20
11.6917728903
 30
0.0
 10
17.6650799029
 20
11.7077615706
 30
0.0
 10
17.6136576764
 20
11.7359038201
 30
0.0
 10
17.5599272736
 20
11.7799100675
 30
0.0
 10
17.5140279136
 20
11.8314756835
 30
0.0
 10
17.4882143696
 20
11.8695165804
 30
0.0
 10
17.4763031641
 20
11.8892490155
 30
0.0
  0
SPLINE
  5
36F
100
AcDbEntity
  8
0
100
AcDbSpline
 62
7
  6
BYLAYER
 70
0
 71
3
 72
9
 73
5
 74
0
 42
0.0000001
 43
0.0000001
 44
0.0000000001
 40
0.0
 40
0.0
 40
0.0
 40
0.0
 40
0.2473578349
 40
1.0
 40
1.0
 40
1.0
 40
1.0
 10
17.4763031641
 20
11.8892490155
 30
0.0
 10
17.4736836053
 20
11.8935886496
 30
0.0
 10
17.4633009363
 20
11.9112574828
 30
0.0
 10
17.4537270856
 20
11.9293978384
 30
0.0
 10
17.446932373
 20
11.9432440067
 30
0.0
  0
SPLINE
  5
370
100
AcDbEntity
  8
0
100
AcDbSpline
 62
7
  6
BYLAYER
 70
0
 71
3
 72
17
 73
13
 74
0
 42
0.0000001
 43
0.0000001
 44
0.0000000001
 40
0.0
 40
0.0
 40
0.0
 40
0.0
 40
0.0563057894
 40
0.1122613561
 40
0.1683939984
 40
0.2246732981
 40
0.3378903047
 40
0.4543656036
 40
0.576858101
 40
0.7077625333
 40
0.8485676695
 40
1.0
 40
1.0
 40
1.0
 40
1.0
 10
17.9341031974
 20
11.7193059682
 30
0.0
 10
17.9424248463
 20
11.7177084347
 30
0.0
 10
17.9592485543
 20
11.7156079719
 30
0.0
 10
17.9846634762
 20
11.7159068625
 30
0.0
 10
18.0098050426
 20
11.7196198771
 30
0.0
 10
18.0425601661
 20
11.728877679
 30
0.0
 10
18.0814361618
 20
11.7483099307
 30
0.0
 10
18.1231168634
 20
11.7815212325
 30
0.0
 10
18.1603937427
 20
11.8231386357
 30
0.0
 10
18.1938220889
 20
11.8723154014
 30
0.0
 10
18.2238383468
 20
11.9285854117
 30
0.0
 10
18.2410622913
 20
11.9691119826
 30
0.0
 10
18.2492196737
 20
11.9903914507
 30
0.0
  0
SPLINE
  5
371
100
AcDbEntity
  8
02___PRT_ALL_AXES
100
AcDbSpline
 62
7
  6
BYLAYER
 70
0
 71
3
 72
10
 73
6
 74
0
 42
0.0000001
 43
0.0000001
 44
0.0000000001
 40
0.0
 40
0.0
 40
0.0
 40
0.0
 40
0.5161344746
 40
0.7604943016
 40
1.0
 40
1.0
 40
1.0
 40
1.0
 10
17.3499270367
 20
13.5284541055
 30
0.0
 10
17.3488540712
 20
13.524981988
 30
0.0
 10
17.3480503513
 20
13.5195351834
 30
0.0
 10
17.3490963424
 20
13.5125353877
 30
0.0
 10
17.3502807968
 20
13.5093091123
 30
0.0
 10
17.3510247621
 20
13.5077957197
 30
0.0
  0
SPLINE
  5
372
100
AcDbEntity
  8
0
100
AcDbSpline
 62
7
  6
BYLAYER
 70
0
 71
3
 72
28
 73
24
 74
0
 42
0.0000001
 43
0.0000001
 44
0.0000000001
 40
0.0
 40
0.0
 40
0.0
 40
0.0
 40
0.0673782762
 40
0.1393891274
 40
0.2149116234
 40
0.2927494292
 40
0.3716170765
 40
0.4502071462
 40
0.5272175557
 40
0.6013927846
 40
0.6715636375
 40
0.7366916216
 40
0.7959224504
 40
0.8231381145
 40
0.8486826087
 40
0.8725391838
 40
0.8947260852
 40
0.9152986839
 40
0.9343669104
 40
0.9520971503
 40
0.9687282782
 40
0.9845709559
 40
1.0
 40
1.0
 40
1.0
 40
1.0
 10
18.1773098207
 20
12.9028370366
 30
0.0
 10
18.170694011
 20
12.8814282685
 30
0.0
 10
18.1588562536
 20
12.8365555803
 30
0.0
 10
18.1454142434
 20
12.7663121912
 30
0.0
 10
18.1358848592
 20
12.6919246144
 30
0.0
 10
18.1304543216
 20
12.6148451239
 30
0.0
 10
18.1292338626
 20
12.5365649175
 30
0.0
 10
18.1322463222
 20
12.4586083388
 30
0.0
 10
18.1394325012
 20
12.382490003
 30
0.0
 10
18.1506488988
 20
12.3096880054
 30
0.0
 10
18.1656722246
 20
12.2416065678
 30
0.0
 10
18.1842058639
 20
12.179559904
 30
0.0
 10
18.2027656252
 20
12.132596802
 30
0.0
 10
18.2192656882
 20
12.0991858662
 30
0.0
 10
18.2319253424
 20
12.077052426
 30
0.0
 10
18.2451614429
 20
12.0572372045
 30
0.0
 10
18.2589108411
 20
12.0398312327
 30
0.0
 10
18.2731200569
 20
12.0249220348
 30
0.0
 10
18.2877253657
 20
12.0125785742
 30
0.0
 10
18.3026738196
 20
12.0028735614
 30
0.0
 10
18.3179040453
 20
11.9958705634
 30
0.0
 10
18.3333370766
 20
11.9916320195
 30
0.0
 10
18.343760068
 20
11.9906829051
 30
0.0
 10
18.3488912343
 20
11.9906824846
 30
0.0
  0
SPLINE
  5
373
100
AcDbEntity
  8
02___PRT_ALL_AXES
100
AcDbSpline
 62
7
  6
BYLAYER
 70
0
 71
3
 72
13
 73
9
 74
0
 42
0.0000001
 43
0.0000001
 44
0.0000000001
 40
0.0
 40
0.0
 40
0.0
 40
0.0
 40
0.0859159704
 40
0.1775515467
 40
0.2793768109
 40
0.3943308344
 40
0.6682047645
 40
1.0
 40
1.0
 40
1.0
 40
1.0
 10
18.5084400809
 20
12.7340346358
 30
0.0
 10
18.5091304929
 20
12.7340337506
 30
0.0
 10
18.5105646902
 20
12.7342480769
 30
0.0
 10
18.5126311141
 20
12.7351811657
 30
0.0
 10
18.5146190129
 20
12.7366892886
 30
0.0
 10
18.5172963341
 20
12.7396052623
 30
0.0
 10
18.5202472163
 20
12.7446521853
 30
0.0
 10
18.5219580867
 20
12.7492241082
 30
0.0
 10
18.5227452974
 20
12.7517715229
 30
0.0
  0
SPLINE
  5
374
100
AcDbEntity
  8
0
100
AcDbSpline
 62
7
  6
BYLAYER
 70
0
 71
3
 72
19
 73
15
 74
0
 42
0.0000001
 43
0.0000001
 44
0.0000000001
 40
0.0
 40
0.0
 40
0.0
 40
0.0
 40
0.0507466238
 40
0.1026291671
 40
0.1566067647
 40
0.2133363373
 40
0.3356205211
 40
0.4012011376
 40
0.4690021666
 40
0.6081720301
 40
0.7469340009
 40
0.8142542038
 40
0.8792011141
 40
1.0
 40
1.0
 40
1.0
 40
1.0
 10
17.869854945
 20
13.8187500461
 30
0.0
 10
17.8666920151
 20
13.8252006253
 30
0.0
 10
17.8588097535
 20
13.8375716587
 30
0.0
 10
17.8430339903
 20
13.8533708646
 30
0.0
 10
17.8236952493
 20
13.8661286334
 30
0.0
 10
17.7931550411
 20
13.8789859589
 30
0.0
 10
17.7582698675
 20
13.8840852816
 30
0.0
 10
17.7220710864
 20
13.882165303
 30
0.0
 10
17.6840037674
 20
13.8752909611
 30
0.0
 10
17.6377249966
 20
13.8580023148
 30
0.0
 10
17.596519334
 20
13.8308627555
 30
0.0
 10
17.5687319656
 20
13.8042542117
 30
0.0
 10
17.5461869499
 20
13.7763505945
 30
0.0
 10
17.5338727791
 20
13.7525043646
 30
0.0
 10
17.5288235395
 20
13.7361650192
 30
0.0
  0
SPLINE
  5
375
100
AcDbEntity
  8
0
100
AcDbSpline
 62
7
  6
BYLAYER
 70
0
 71
3
 72
9
 73
5
 74
0
 42
0.0000001
 43
0.0000001
 44
0.0000000001
 40
0.0
 40
0.0
 40
0.0
 40
0.0
 40
0.2477283176
 40
1.0
 40
1.0
 40
1.0
 40
1.0
 10
17.8772774495
 20
13.7981958408
 30
0.0
 10
17.8762876738
 20
13.799429777
 30
0.0
 10
17.8721762003
 20
13.8043168557
 30
0.0
 10
17.8676072833
 20
13.8088166909
 30
0.0
 10
17.8639698635
 20
13.8119541315
 30
0.0
  0
SPLINE
  5
376
100
AcDbEntity
  8
0
100
AcDbSpline
 62
7
  6
BYLAYER
 70
0
 71
3
 72
18
 73
14
 74
0
 42
0.0000001
 43
0.0000001
 44
0.0000000001
 40
0.0
 40
0.0
 40
0.0
 40
0.0
 40
0.0522728274
 40
0.1068122676
 40
0.1639305226
 40
0.2237155738
 40
0.350416942
 40
0.4843307753
 40
0.620944156
 40
0.7551844775
 40
0.8200346867
 40
0.8826750665
 40
1.0
 40
1.0
 40
1.0
 40
1.0
 10
17.8639698635
 20
13.8119541315
 30
0.0
 10
17.8589024588
 20
13.8163249993
 30
0.0
 10
17.8477071049
 20
13.8243192938
 30
0.0
 10
17.8287588681
 20
13.8335341064
 30
0.0
 10
17.8077182752
 20
13.8400559708
 30
0.0
 10
17.7768580633
 20
13.8450959956
 30
0.0
 10
17.7354372477
 20
13.8438230331
 30
0.0
 10
17.6858042095
 20
13.8312346997
 30
0.0
 10
17.6388296155
 20
13.8085664072
 30
0.0
 10
17.6043663721
 20
13.7823239178
 30
0.0
 10
17.5813486713
 20
13.757874219
 30
0.0
 10
17.5626275571
 20
13.732693878
 30
0.0
 10
17.5523232855
 20
13.711664862
 30
0.0
 10
17.5478886561
 20
13.6973143962
 30
0.0
  0
SPLINE
  5
377
100
AcDbEntity
  8
02___PRT_ALL_AXES
100
AcDbSpline
 62
7
  6
BYLAYER
 70
0
 71
3
 72
15
 73
11
 74
0
 42
0.0000001
 43
0.0000001
 44
0.0000000001
 40
0.0
 40
0.0
 40
0.0
 40
0.0
 40
0.2698240389
 40
0.4092446546
 40
0.5448668238
 40
0.6726306825
 40
0.7902103718
 40
0.8979727675
 40
0.9494028895
 40
1.0
 40
1.0
 40
1.0
 40
1.0
 10
17.8929149858
 20
13.5651725544
 30
0.0
 10
17.8847583635
 20
13.5651725544
 30
0.0
 10
17.8722666368
 20
13.5622189704
 30
0.0
 10
17.8578753268
 20
13.5540983244
 30
0.0
 10
17.8485669497
 20
13.5461031881
 30
0.0
 10
17.8415793831
 20
13.536822807
 30
0.0
 10
17.8374027987
 20
13.5268603531
 30
0.0
 10
17.8365992286
 20
13.5183622451
 30
0.0
 10
17.8377124474
 20
13.5120874842
 30
0.0
 10
17.8388116613
 20
13.5091825048
 30
0.0
 10
17.8394849866
 20
13.5078091631
 30
0.0
  0
SPLINE
  5
378
100
AcDbEntity
  8
02___PRT_ALL_AXES
100
AcDbSpline
 62
7
  6
BYLAYER
 70
0
 71
3
 72
17
 73
13
 74
0
 42
0.0000001
 43
0.0000001
 44
0.0000000001
 40
0.0
 40
0.0
 40
0.0
 40
0.0
 40
0.050785639
 40
0.1027115068
 40
0.2130418717
 40
0.3354275365
 40
0.4686469943
 40
0.6079206891
 40
0.67794138
 40
0.747024586
 40
0.879108976
 40
1.0
 40
1.0
 40
1.0
 40
1.0
 10
18.0520201896
 20
13.9645343186
 30
0.0
 10
18.0512279389
 20
13.9661459346
 30
0.0
 10
18.0492553855
 20
13.9692370183
 30
0.0
 10
18.0438976528
 20
13.9746045373
 30
0.0
 10
18.034715984
 20
13.9793252304
 30
0.0
 10
18.0217315176
 20
13.9811993021
 30
0.0
 10
18.0077328589
 20
13.979469292
 30
0.0
 10
17.996280939
 20
13.9751876692
 30
0.0
 10
17.9877579725
 20
13.9702253923
 30
0.0
 10
17.9800709979
 20
13.9644615105
 30
0.0
 10
17.9722111446
 20
13.9560574677
 30
0.0
 10
17.9680305703
 20
13.9479601657
 30
0.0
 10
17.9667684468
 20
13.9438759328
 30
0.0
  0
SPLINE
  5
379
100
AcDbEntity
  8
02___PRT_ALL_AXES
100
AcDbSpline
 62
7
  6
BYLAYER
 70
0
 71
3
 72
23
 73
19
 74
0
 42
0.0000001
 43
0.0000001
 44
0.0000000001
 40
0.0
 40
0.0
 40
0.0
 40
0.0
 40
0.0801642308
 40
0.1060719752
 40
0.1344059679
 40
0.1980465955
 40
0.2699443014
 40
0.3482859732
 40
0.5150720386
 40
0.598626316
 40
0.6788849868
 40
0.7535224261
 40
0.8205466737
 40
0.8784849178
 40
0.9267314651
 40
0.9660994634
 40
0.9834418807
 40
1.0
 40
1.0
 40
1.0
 40
1.0
 10
18.1754566526
 20
12.6352982062
 30
0.0
 10
18.1781468254
 20
12.6360933808
 30
0.0
 10
18.1810496383
 20
12.6389783809
 30
0.0
 10
18.1835671315
 20
12.6429058178
 30
0.0
 10
18.1854896251
 20
12.6465718516
 30
0.0
 10
18.1875539054
 20
12.6519354836
 30
0.0
 10
18.1894666717
 20
12.6591849973
 30
0.0
 10
18.19131112
 20
12.6701350588
 30
0.0
 10
18.1918675553
 20
12.6816757839
 30
0.0
 10
18.191189399
 20
12.6932317675
 30
0.0
 10
18.1900603367
 20
12.7015090076
 30
0.0
 10
18.188357342
 20
12.7090968725
 30
0.0
 10
18.1861425428
 20
12.7157363641
 30
0.0
 10
18.1834834295
 20
12.721209894
 30
0.0
 10
18.1804699775
 20
12.7253552404
 30
0.0
 10
18.1775357569
 20
12.7276980609
 30
0.0
 10
18.1751131454
 20
12.7285974974
 30
0.0
 10
18.173921873
 20
12.7287408692
 30
0.0
 10
18.173342448
 20
12.7287390522
 30
0.0
  0
SPLINE
  5
37A
100
AcDbEntity
  8
0
100
AcDbSpline
 62
7
  6
BYLAYER
 70
0
 71
3
 72
17
 73
13
 74
0
 42
0.0000001
 43
0.0000001
 44
0.0000000001
 40
0.0
 40
0.0
 40
0.0
 40
0.0
 40
0.1727218882
 40
0.2540814842
 40
0.3318557695
 40
0.476281686
 40
0.6057411659
 40
0.7206307207
 40
0.8224070564
 40
0.9139540253
 40
0.9573486794
 40
1.0
 40
1.0
 40
1.0
 40
1.0
 10
18.1773098207
 20
12.9028370366
 30
0.0
 10
18.182230773
 20
12.9187612439
 30
0.0
 10
18.1902049867
 20
12.9419746898
 30
0.0
 10
18.2023328316
 20
12.9716206544
 30
0.0
 10
18.2145397479
 20
12.998255627
 30
0.0
 10
18.2306992458
 20
13.0281612166
 30
0.0
 10
18.2520942251
 20
13.0590898568
 30
0.0
 10
18.2747938532
 20
13.0837762927
 30
0.0
 10
18.2986084387
 20
13.1019058681
 30
0.0
 10
18.3196797788
 20
13.1114005358
 30
0.0
 10
18.3364688517
 20
13.1150759978
 30
0.0
 10
18.3447847644
 20
13.1156807114
 30
0.0
 10
18.3489005071
 20
13.1156803742
 30
0.0
  0
SPLINE
  5
37B
100
AcDbEntity
  8
02___PRT_ALL_AXES
100
AcDbSpline
 62
7
  6
BYLAYER
 70
0
 71
3
 72
20
 73
16
 74
0
 42
0.0000001
 43
0.0000001
 44
0.0000000001
 40
0.0
 40
0.0
 40
0.0
 40
0.0
 40
0.0313821286
 40
0.0665190451
 40
0.1078616079
 40
0.1565013247
 40
0.2125273193
 40
0.2754533903
 40
0.3443437252
 40
0.4180146626
 40
0.5738942688
 40
0.7308681214
 40
0.8764342002
 40
0.9415731979
 40
1.0
 40
1.0
 40
1.0
 40
1.0
 10
18.4375822317
 20
12.0965923199
 30
0.0
 10
18.4385364156
 20
12.0965933506
 30
0.0
 10
18.4405735867
 20
12.0970247855
 30
0.0
 10
18.4433749877
 20
12.0988225734
 30
0.0
 10
18.4459753733
 20
12.1016382479
 30
0.0
 10
18.4483539374
 20
12.10540749
 30
0.0
 10
18.4504808747
 20
12.110050631
 30
0.0
 10
18.4523065578
 20
12.1154711502
 30
0.0
 10
18.4537937547
 20
12.1215461863
 30
0.0
 10
18.4552999391
 20
12.1305008569
 30
0.0
 10
18.4561024709
 20
12.1422595174
 30
0.0
 10
18.4554289083
 20
12.1562090228
 30
0.0
 10
18.4535166479
 20
12.1672677093
 30
0.0
 10
18.451140526
 20
12.1751071067
 30
0.0
 10
18.449706832
 20
12.1785899333
 30
0.0
 10
18.4489242135
 20
12.1801847421
 30
0.0
  0
SPLINE
  5
37C
100
AcDbEntity
  8
02___PRT_ALL_AXES
100
AcDbSpline
 62
7
  6
BYLAYER
 70
0
 71
3
 72
17
 73
13
 74
0
 42
0.0000001
 43
0.0000001
 44
0.0000000001
 40
0.0
 40
0.0
 40
0.0
 40
0.0
 40
0.0328478074
 40
0.0676279268
 40
0.1059114104
 40
0.148752321
 40
0.2498936423
 40
0.3721854089
 40
0.5131913382
 40
0.6685235917
 40
0.8329156281
 40
1.0
 40
1.0
 40
1.0
 40
1.0
 10
18.2987889402
 20
12.0555661235
 30
0.0
 10
18.2994345013
 20
12.0555668136
 30
0.0
 10
18.3007693018
 20
12.0557548762
 30
0.0
 10
18.3027049374
 20
12.0565700605
 30
0.0
 10
18.3045752743
 20
12.0578960459
 30
0.0
 10
18.3071022384
 20
12.0604544292
 30
0.0
 10
18.3099377886
 20
12.0649131784
 30
0.0
 10
18.3126866519
 20
12.071548289
 30
0.0
 10
18.3148535022
 20
12.0795046533
 30
0.0
 10
18.316344179
 20
12.0884486358
 30
0.0
 10
18.3170873979
 20
12.0979978145
 30
0.0
 10
18.3170651353
 20
12.104520799
 30
0.0
 10
18.3169180916
 20
12.1078012322
 30
0.0
  0
SPLINE
  5
37D
100
AcDbEntity
  8
02___PRT_ALL_AXES
100
AcDbSpline
 62
7
  6
BYLAYER
 70
0
 71
3
 72
10
 73
6
 74
0
 42
0.0000001
 43
0.0000001
 44
0.0000000001
 40
0.0
 40
0.0
 40
0.0
 40
0.0
 40
0.5161344746
 40
0.7604943016
 40
1.0
 40
1.0
 40
1.0
 40
1.0
 10
17.9667684468
 20
13.9438759328
 30
0.0
 10
17.9656954813
 20
13.9404038152
 30
0.0
 10
17.9648917615
 20
13.9349570107
 30
0.0
 10
17.9659377526
 20
13.927957215
 30
0.0
 10
17.9671222069
 20
13.9247309396
 30
0.0
 10
17.9678661722
 20
13.923217547
 30
0.0
  0
SPLINE
  5
37E
100
AcDbEntity
  8
02___PRT_ALL_AXES
100
AcDbSpline
 62
7
  6
BYLAYER
 70
0
 71
3
 72
13
 73
9
 74
0
 42
0.0000001
 43
0.0000001
 44
0.0000000001
 40
0.0
 40
0.0
 40
0.0
 40
0.0
 40
0.0859159704
 40
0.1775515467
 40
0.2793768109
 40
0.3943308344
 40
0.6682047645
 40
1.0
 40
1.0
 40
1.0
 40
1.0
 10
18.1893389025
 20
12.2785785144
 30
0.0
 10
18.1900293145
 20
12.2785776292
 30
0.0
 10
18.1914635118
 20
12.2787919555
 30
0.0
 10
18.1935299357
 20
12.2797250443
 30
0.0
 10
18.1955178346
 20
12.2812331672
 30
0.0
 10
18.1981951557
 20
12.2841491409
 30
0.0
 10
18.2011460379
 20
12.2891960639
 30
0.0
 10
18.2028569083
 20
12.2937679868
 30
0.0
 10
18.203644119
 20
12.2963154015
 30
0.0
  0
SPLINE
  5
37F
100
AcDbEntity
  8
0
100
AcDbSpline
 62
7
  6
BYLAYER
 70
0
 71
3
 72
10
 73
6
 74
0
 42
0.0000001
 43
0.0000001
 44
0.0000000001
 40
0.0
 40
0.0
 40
0.0
 40
0.0
 40
0.5144921045
 40
0.7602063827
 40
1.0
 40
1.0
 40
1.0
 40
1.0
 10
17.5478886561
 20
13.6973143962
 30
0.0
 10
17.5447144103
 20
13.6870425328
 30
0.0
 10
17.5417199045
 20
13.6712119735
 30
0.0
 10
17.5420879757
 20
13.6502693264
 30
0.0
 10
17.5437039431
 20
13.6402084309
 30
0.0
 10
17.5448660556
 20
13.6353341776
 30
0.0
  0
SPLINE
  5
380
100
AcDbEntity
  8
02___PRT_ALL_AXES
100
AcDbSpline
 62
7
  6
BYLAYER
 70
0
 71
3
 72
11
 73
7
 74
0
 42
0.0000001
 43
0.0000001
 44
0.0000000001
 40
0.0
 40
0.0
 40
0.0
 40
0.0
 40
0.2268632804
 40
0.4650145788
 40
0.722100556
 40
1.0
 40
1.0
 40
1.0
 40
1.0
 10
17.5635599651
 20
13.9645208752
 30
0.0
 10
17.5623467623
 20
13.9669953734
 30
0.0
 10
17.5589521681
 20
13.9716667366
 30
0.0
 10
17.5516904899
 20
13.9768156255
 30
0.0
 10
17.5427270739
 20
13.9799468238
 30
0.0
 10
17.5361995672
 20
13.9805943817
 30
0.0
 10
17.5328236838
 20
13.9805943817
 30
0.0
  0
SPLINE
  5
381
100
AcDbEntity
  8
02___PRT_ALL_AXES
100
AcDbSpline
 62
7
  6
BYLAYER
 70
0
 71
3
 72
18
 73
14
 74
0
 42
0.0000001
 43
0.0000001
 44
0.0000000001
 40
0.0
 40
0.0
 40
0.0
 40
0.0
 40
0.1393852211
 40
0.2927819298
 40
0.4502785
 40
0.60149873
 40
0.736802521
 40
0.7960744217
 40
0.8488586442
 40
0.894900179
 40
0.9345235345
 40
0.9688231352
 40
1.0
 40
1.0
 40
1.0
 40
1.0
 10
18.203644119
 20
12.2963154015
 30
0.0
 10
18.2047837477
 20
12.3000032413
 30
0.0
 10
18.2065256549
 20
12.3079542781
 30
0.0
 10
18.2077236512
 20
12.3203880842
 30
0.0
 10
18.2075808926
 20
12.333210611
 30
0.0
 10
18.206107318
 20
12.3454413225
 30
0.0
 10
18.2037851041
 20
12.3547726207
 30
0.0
 10
18.2012652186
 20
12.3611527198
 30
0.0
 10
18.199230167
 20
12.3650409158
 30
0.0
 10
18.1969979025
 20
12.3681766666
 30
0.0
 10
18.1945969
 20
12.3705084724
 30
0.0
 10
18.19203979
 20
12.3719781569
 30
0.0
 10
18.1902150221
 20
12.3723271162
 30
0.0
 10
18.1893516605
 20
12.3723282231
 30
0.0
  0
SPLINE
  5
382
100
AcDbEntity
  8
02___PRT_ALL_AXES
100
AcDbSpline
 62
7
  6
BYLAYER
 70
0
 71
3
 72
15
 73
11
 74
0
 42
0.0000001
 43
0.0000001
 44
0.0000000001
 40
0.0
 40
0.0
 40
0.0
 40
0.0
 40
0.2698240389
 40
0.4092446546
 40
0.5448668238
 40
0.6726306825
 40
0.7902103718
 40
0.8979727675
 40
0.9494028895
 40
1.0
 40
1.0
 40
1.0
 40
1.0
 10
17.5328236838
 20
13.9805943817
 30
0.0
 10
17.5246670615
 20
13.9805943817
 30
0.0
 10
17.5121753348
 20
13.9776407976
 30
0.0
 10
17.4977840248
 20
13.9695201516
 30
0.0
 10
17.4884756477
 20
13.9615250154
 30
0.0
 10
17.4814880812
 20
13.9522446343
 30
0.0
 10
17.4773114967
 20
13.9422821803
 30
0.0
 10
17.4765079266
 20
13.9337840723
 30
0.0
 10
17.4776211454
 20
13.9275093114
 30
0.0
 10
17.4787203594
 20
13.9246043321
 30
0.0
 10
17.4793936846
 20
13.9232309904
 30
0.0
  0
SPLINE
  5
383
100
AcDbEntity
  8
02___PRT_ALL_AXES
100
AcDbSpline
 62
7
  6
BYLAYER
 70
0
 71
3
 72
20
 73
16
 74
0
 42
0.0000001
 43
0.0000001
 44
0.0000000001
 40
0.0
 40
0.0
 40
0.0
 40
0.0
 40
0.0313821286
 40
0.0665190451
 40
0.1078616079
 40
0.1565013247
 40
0.2125273193
 40
0.2754533903
 40
0.3443437252
 40
0.4180146626
 40
0.5738942688
 40
0.7308681214
 40
0.8764342002
 40
0.9415731979
 40
1.0
 40
1.0
 40
1.0
 40
1.0
 10
18.2602192639
 20
12.9160225924
 30
0.0
 10
18.2611734478
 20
12.9160236231
 30
0.0
 10
18.2632106189
 20
12.916455058
 30
0.0
 10
18.2660120199
 20
12.9182528459
 30
0.0
 10
18.2686124055
 20
12.9210685204
 30
0.0
 10
18.2709909696
 20
12.9248377624
 30
0.0
 10
18.2731179069
 20
12.9294809035
 30
0.0
 10
18.27494359
 20
12.9349014227
 30
0.0
 10
18.2764307869
 20
12.9409764588
 30
0.0
 10
18.2779369714
 20
12.9499311294
 30
0.0
 10
18.2787395031
 20
12.9616897899
 30
0.0
 10
18.2780659405
 20
12.9756392953
 30
0.0
 10
18.2761536801
 20
12.9866979818
 30
0.0
 10
18.2737775582
 20
12.9945373792
 30
0.0
 10
18.2723438642
 20
12.9980202058
 30
0.0
 10
18.2715612457
 20
12.9996150146
 30
0.0
  0
SPLINE
  5
384
100
AcDbEntity
  8
0
100
AcDbSpline
 62
7
  6
BYLAYER
 70
0
 71
3
 72
25
 73
21
 74
0
 42
0.0000001
 43
0.0000001
 44
0.0000000001
 40
0.0
 40
0.0
 40
0.0
 40
0.0
 40
0.0154314814
 40
0.0312761461
 40
0.0655508911
 40
0.0846198278
 40
0.1051942799
 40
0.1512044473
 40
0.203945943
 40
0.2631839107
 40
0.3283203954
 40
0.3985019385
 40
0.4726894734
 40
0.5497126393
 40
0.6283157094
 40
0.707198049
 40
0.7850501807
 40
0.8605830016
 40
0.9326149855
 40
1.0
 40
1.0
 40
1.0
 40
1.0
 10
18.3488872842
 20
12.8031812604
 30
0.0
 10
18.3511678705
 20
12.8031820486
 30
0.0
 10
18.3558007638
 20
12.8027597123
 30
0.0
 10
18.3651841625
 20
12.8001879566
 30
0.0
 10
18.3742135161
 20
12.7950309263
 30
0.0
 10
18.3825636412
 20
12.7879729043
 30
0.0
 10
18.3913138526
 20
12.7787915262
 30
0.0
 10
18.4015887374
 20
12.7643554558
 30
0.0
 10
18.412447755
 20
12.7436293898
 30
0.0
 10
18.4220871432
 20
12.7192494529
 30
0.0
 10
18.4303254367
 20
12.6916714329
 30
0.0
 10
18.4370035569
 20
12.6614130891
 30
0.0
 10
18.4419890857
 20
12.6290554416
 30
0.0
 10
18.4451835432
 20
12.595223901
 30
0.0
 10
18.4465233965
 20
12.5605750215
 30
0.0
 10
18.4459815782
 20
12.5257820394
 30
0.0
 10
18.4435678019
 20
12.4915230872
 30
0.0
 10
18.4393328205
 20
12.4584593719
 30
0.0
 10
18.4333576768
 20
12.4272386608
 30
0.0
 10
18.4280966146
 20
12.407293678
 30
0.0
 10
18.4251563374
 20
12.3977789374
 30
0.0
  0
SPLINE
  5
385
100
AcDbEntity
  8
02___PRT_ALL_AXES
100
AcDbSpline
 62
7
  6
BYLAYER
 70
0
 71
3
 72
17
 73
13
 74
0
 42
0.0000001
 43
0.0000001
 44
0.0000000001
 40
0.0
 40
0.0
 40
0.0
 40
0.0
 40
0.050785639
 40
0.1027115068
 40
0.2130418717
 40
0.3354275365
 40
0.4686469943
 40
0.6079206891
 40
0.67794138
 40
0.747024586
 40
0.879108976
 40
1.0
 40
1.0
 40
1.0
 40
1.0
 10
17.4351787795
 20
13.5491124914
 30
0.0
 10
17.4343865288
 20
13.5507241074
 30
0.0
 10
17.4324139753
 20
13.5538151911
 30
0.0
 10
17.4270562427
 20
13.55918271
 30
0.0
 10
17.4178745738
 20
13.5639034031
 30
0.0
 10
17.4048901075
 20
13.5657774748
 30
0.0
 10
17.3908914488
 20
13.5640474647
 30
0.0
 10
17.3794395289
 20
13.559765842
 30
0.0
 10
17.3709165623
 20
13.554803565
 30
0.0
 10
17.3632295878
 20
13.5490396832
 30
0.0
 10
17.3553697345
 20
13.5406356405
 30
0.0
 10
17.3511891601
 20
13.5325383385
 30
0.0
 10
17.3499270367
 20
13.5284541055
 30
0.0
  0
SPLINE
  5
386
100
AcDbEntity
  8
02___PRT_ALL_AXES
100
AcDbSpline
 62
7
  6
BYLAYER
 70
0
 71
3
 72
15
 73
11
 74
0
 42
0.0000001
 43
0.0000001
 44
0.0000000001
 40
0.0
 40
0.0
 40
0.0
 40
0.0
 40
0.1734563934
 40
0.3392725583
 40
0.4926163165
 40
0.6299720811
 40
0.7487638761
 40
0.8480145523
 40
0.9296139082
 40
1.0
 40
1.0
 40
1.0
 40
1.0
 10
18.3169180916
 20
12.1078012322
 30
0.0
 10
18.3167932383
 20
12.1105866154
 30
0.0
 10
18.3163564613
 20
12.1160283295
 30
0.0
 10
18.3151323899
 20
12.1238596035
 30
0.0
 10
18.31338415
 20
12.1309973253
 30
0.0
 10
18.3111712784
 20
12.1372111817
 30
0.0
 10
18.308565101
 20
12.1423190658
 30
0.0
 10
18.3056233342
 20
12.1461773222
 30
0.0
 10
18.3023711963
 20
12.148686697
 30
0.0
 10
18.2999101538
 20
12.1493171306
 30
0.0
 10
18.2987787514
 20
12.149315921
 30
0.0
  0
SPLINE
  5
387
100
AcDbEntity
  8
0
100
AcDbSpline
 62
7
  6
BYLAYER
 70
0
 71
3
 72
11
 73
7
 74
0
 42
0.0000001
 43
0.0000001
 44
0.0000000001
 40
0.0
 40
0.0
 40
0.0
 40
0.0
 40
0.2643559258
 40
0.5171099892
 40
0.760912027
 40
1.0
 40
1.0
 40
1.0
 40
1.0
 10
17.5288235395
 20
13.7361650192
 30
0.0
 10
17.5266223007
 20
13.729041808
 30
0.0
 10
17.523399313
 20
13.7147365753
 30
0.0
 10
17.5224239061
 20
13.6931792562
 30
0.0
 10
17.5254884291
 20
13.6725262272
 30
0.0
 10
17.5302213827
 20
13.6596342977
 30
0.0
 10
17.5331900067
 20
13.6535799922
 30
0.0
  0
SPLINE
  5
388
100
AcDbEntity
  8
02___PRT_ALL_AXES
100
AcDbSpline
 62
7
  6
BYLAYER
 70
0
 71
3
 72
11
 73
7
 74
0
 42
0.0000001
 43
0.0000001
 44
0.0000000001
 40
0.0
 40
0.0
 40
0.0
 40
0.0
 40
0.3156806228
 40
0.5821591739
 40
0.8046012074
 40
1.0
 40
1.0
 40
1.0
 40
1.0
 10
18.4489242135
 20
12.1801847421
 30
0.0
 10
18.4481846882
 20
12.1816917363
 30
0.0
 10
18.4466455885
 20
12.184393686
 30
0.0
 10
18.4438766763
 20
12.1876964256
 30
0.0
 10
18.4408506133
 20
12.1898222417
 30
0.0
 10
18.438611533
 20
12.1903413889
 30
0.0
 10
18.4375724775
 20
12.1903402665
 30
0.0
  0
SPLINE
  5
389
100
AcDbEntity
  8
02___PRT_ALL_AXES
100
AcDbSpline
 62
7
  6
BYLAYER
 70
0
 71
3
 72
11
 73
7
 74
0
 42
0.0000001
 43
0.0000001
 44
0.0000000001
 40
0.0
 40
0.0
 40
0.0
 40
0.0
 40
0.2268632804
 40
0.4650145788
 40
0.722100556
 40
1.0
 40
1.0
 40
1.0
 40
1.0
 10
17.9236512671
 20
13.549099048
 30
0.0
 10
17.9224380642
 20
13.5515735462
 30
0.0
 10
17.9190434701
 20
13.5562449093
 30
0.0
 10
17.9117817918
 20
13.5613937982
 30
0.0
 10
17.9028183759
 20
13.5645249965
 30
0.0
 10
17.8962908691
 20
13.5651725544
 30
0.0
 10
17.8929149858
 20
13.5651725544
 30
0.0
  0
SPLINE
  5
38A
100
AcDbEntity
  8
02___PRT_ALL_AXES
100
AcDbSpline
 62
7
  6
BYLAYER
 70
0
 71
3
 72
23
 73
19
 74
0
 42
0.0000001
 43
0.0000001
 44
0.0000000001
 40
0.0
 40
0.0
 40
0.0
 40
0.0
 40
0.0801642308
 40
0.1060719752
 40
0.1344059679
 40
0.1980465955
 40
0.2699443014
 40
0.3482859732
 40
0.5150720386
 40
0.598626316
 40
0.6788849868
 40
0.7535224261
 40
0.8205466737
 40
0.8784849178
 40
0.9267314651
 40
0.9660994634
 40
0.9834418807
 40
1.0
 40
1.0
 40
1.0
 40
1.0
 10
18.526509817
 20
12.3779296158
 30
0.0
 10
18.5291999898
 20
12.3787247903
 30
0.0
 10
18.5321028026
 20
12.3816097905
 30
0.0
 10
18.5346202958
 20
12.3855372274
 30
0.0
 10
18.5365427894
 20
12.3892032612
 30
0.0
 10
18.5386070698
 20
12.3945668931
 30
0.0
 10
18.5405198361
 20
12.4018164069
 30
0.0
 10
18.5423642843
 20
12.4127664684
 30
0.0
 10
18.5429207196
 20
12.4243071935
 30
0.0
 10
18.5422425634
 20
12.4358631771
 30
0.0
 10
18.5411135011
 20
12.4441404171
 30
0.0
 10
18.5394105063
 20
12.4517282821
 30
0.0
 10
18.5371957072
 20
12.4583677737
 30
0.0
 10
18.5345365938
 20
12.4638413036
 30
0.0
 10
18.5315231419
 20
12.46798665
 30
0.0
 10
18.5285889213
 20
12.4703294705
 30
0.0
 10
18.5261663098
 20
12.471228907
 30
0.0
 10
18.5249750373
 20
12.4713722788
 30
0.0
 10
18.5243956124
 20
12.4713704617
 30
0.0
  0
SPLINE
  5
38B
100
AcDbEntity
  8
0
100
AcDbSpline
 62
7
  6
BYLAYER
 70
0
 71
3
 72
15
 73
11
 74
0
 42
0.0000001
 43
0.0000001
 44
0.0000000001
 40
0.0
 40
0.0
 40
0.0
 40
0.0
 40
0.1727354959
 40
0.3318978105
 40
0.4763624808
 40
0.6058446916
 40
0.7207723983
 40
0.8225759976
 40
0.9141485651
 40
1.0
 40
1.0
 40
1.0
 40
1.0
 10
18.4251563374
 20
12.3977789374
 30
0.0
 10
18.422969805
 20
12.3907033161
 30
0.0
 10
18.4183417283
 20
12.3772333449
 30
0.0
 10
18.410272154
 20
12.3584481704
 30
0.0
 10
18.4014314964
 20
12.3420845517
 30
0.0
 10
18.3919219757
 20
12.3283398105
 30
0.0
 10
18.3818387985
 20
12.3173665258
 30
0.0
 10
18.3712474684
 20
12.3093100854
 30
0.0
 10
18.3602299938
 20
12.3043285182
 30
0.0
 10
18.3525852029
 20
12.3031828705
 30
0.0
 10
18.3489044572
 20
12.3031815985
 30
0.0
  0
SPLINE
  5
38C
100
AcDbEntity
  8
0
100
AcDbSpline
 62
7
  6
BYLAYER
 70
0
 71
3
 72
9
 73
5
 74
0
 42
0.0000001
 43
0.0000001
 44
0.0000000001
 40
0.0
 40
0.0
 40
0.0
 40
0.0
 40
0.4977508389
 40
1.0
 40
1.0
 40
1.0
 40
1.0
 10
17.2807167387
 20
13.529650878
 30
0.0
 10
17.2856755382
 20
13.5195476853
 30
0.0
 10
17.2970582434
 20
13.4999167069
 30
0.0
 10
17.3110289991
 20
13.4820396072
 30
0.0
 10
17.3185977844
 20
13.4735733546
 30
0.0
  0
SPLINE
  5
38D
100
AcDbEntity
  8
0
100
AcDbSpline
 62
7
  6
BYLAYER
 70
0
 71
3
 72
13
 73
9
 74
0
 42
0.0000001
 43
0.0000001
 44
0.0000000001
 40
0.0
 40
0.0
 40
0.0
 40
0.0
 40
0.1129947846
 40
0.2286199177
 40
0.3474943317
 40
0.4700695079
 40
0.7269592965
 40
1.0
 40
1.0
 40
1.0
 40
1.0
 10
17.3185977844
 20
13.4735733546
 30
0.0
 10
17.3260625812
 20
13.465223421
 30
0.0
 10
17.3422887458
 20
13.4493004499
 30
0.0
 10
17.3697466051
 20
13.4283726999
 30
0.0
 10
17.4002986311
 20
13.4103450778
 30
0.0
 10
17.4454477081
 20
13.3900919434
 30
0.0
 10
17.508336921
 20
13.3731675914
 30
0.0
 10
17.5609897021
 20
13.3689805303
 30
0.0
 10
17.5880538868
 20
13.3689805303
 30
0.0
  0
SPLINE
  5
38E
100
AcDbEntity
  8
02___PRT_ALL_AXES
100
AcDbSpline
 62
7
  6
BYLAYER
 70
0
 71
3
 72
18
 73
14
 74
0
 42
0.0000001
 43
0.0000001
 44
0.0000000001
 40
0.0
 40
0.0
 40
0.0
 40
0.0
 40
0.1393852211
 40
0.2927819298
 40
0.4502785
 40
0.60149873
 40
0.736802521
 40
0.7960744217
 40
0.8488586442
 40
0.894900179
 40
0.9345235345
 40
0.9688231352
 40
1.0
 40
1.0
 40
1.0
 40
1.0
 10
18.5227452974
 20
12.7517715229
 30
0.0
 10
18.5238849261
 20
12.7554593627
 30
0.0
 10
18.5256268333
 20
12.7634103994
 30
0.0
 10
18.5268248296
 20
12.7758442056
 30
0.0
 10
18.5266820709
 20
12.7886667324
 30
0.0
 10
18.5252084963
 20
12.8008974439
 30
0.0
 10
18.5228862824
 20
12.8102287421
 30
0.0
 10
18.5203663969
 20
12.8166088412
 30
0.0
 10
18.5183313454
 20
12.8204970372
 30
0.0
 10
18.5160990808
 20
12.823632788
 30
0.0
 10
18.5136980783
 20
12.8259645938
 30
0.0
 10
18.5111409684
 20
12.8274342783
 30
0.0
 10
18.5093162004
 20
12.8277832375
 30
0.0
 10
18.5084528389
 20
12.8277843445
 30
0.0
  0
SPLINE
  5
38F
100
AcDbEntity
  8
02___PRT_ALL_AXES
100
AcDbSpline
 62
7
  6
BYLAYER
 70
0
 71
3
 72
11
 73
7
 74
0
 42
0.0000001
 43
0.0000001
 44
0.0000000001
 40
0.0
 40
0.0
 40
0.0
 40
0.0
 40
0.3156806228
 40
0.5821591739
 40
0.8046012074
 40
1.0
 40
1.0
 40
1.0
 40
1.0
 10
18.2715612457
 20
12.9996150146
 30
0.0
 10
18.2708217204
 20
13.0011220088
 30
0.0
 10
18.2692826207
 20
13.0038239585
 30
0.0
 10
18.2665137085
 20
13.0071266981
 30
0.0
 10
18.2634876455
 20
13.0092525142
 30
0.0
 10
18.2612485652
 20
13.0097716614
 30
0.0
 10
18.2602095097
 20
13.009770539
 30
0.0
  0
SPLINE
  5
390
100
AcDbEntity
  8
0
100
AcDbSpline
 62
7
  6
BYLAYER
 70
0
 71
3
 72
18
 73
14
 74
0
 42
0.0000001
 43
0.0000001
 44
0.0000000001
 40
0.0
 40
0.0
 40
0.0
 40
0.0
 40
0.0536165179
 40
0.1075666559
 40
0.1621679427
 40
0.2177113744
 40
0.2744460783
 40
0.332577408
 40
0.4534644299
 40
0.5811197033
 40
0.7153809041
 40
0.8554420743
 40
1.0
 40
1.0
 40
1.0
 40
1.0
 10
18.122328213
 20
13.9426791604
 30
0.0
 10
18.1264327651
 20
13.9343164345
 30
0.0
 10
18.1337119397
 20
13.9170503231
 30
0.0
 10
18.141641367
 20
13.8899533394
 30
0.0
 10
18.1465589962
 20
13.8618099188
 30
0.0
 10
18.148420061
 20
13.8328202971
 30
0.0
 10
18.1472285009
 20
13.8031832664
 30
0.0
 10
18.1415028994
 20
13.7625658939
 30
0.0
 10
18.1264924697
 20
13.7111077415
 30
0.0
 10
18.0972330636
 20
13.6510740535
 30
0.0
 10
18.0573374111
 20
13.5934444166
 30
0.0
 10
18.0079117053
 20
13.5397433528
 30
0.0
 10
17.9699189354
 20
13.5078513147
 30
0.0
 10
17.9497409255
 20
13.4928951293
 30
0.0
  0
SPLINE
  5
391
100
AcDbEntity
  8
0
100
AcDbSpline
 62
7
  6
BYLAYER
 70
0
 71
3
 72
11
 73
7
 74
0
 42
0.0000001
 43
0.0000001
 44
0.0000000001
 40
0.0
 40
0.0
 40
0.0
 40
0.0
 40
0.2562651465
 40
0.5103151839
 40
0.7591296431
 40
1.0
 40
1.0
 40
1.0
 40
1.0
 10
17.8712806709
 20
13.4432115059
 30
0.0
 10
17.8490325101
 20
13.4312836413
 30
0.0
 10
17.8033010249
 20
13.4100907854
 30
0.0
 10
17.7320887596
 20
13.3867211031
 30
0.0
 10
17.660067427
 20
13.3723592471
 30
0.0
 10
17.6117812952
 20
13.3689805303
 30
0.0
 10
17.5880538868
 20
13.3689805303
 30
0.0
  0
SPLINE
  5
392
100
AcDbEntity
  8
0
100
AcDbSpline
 62
7
  6
BYLAYER
 70
0
 71
3
 72
10
 73
6
 74
0
 42
0.0000001
 43
0.0000001
 44
0.0000000001
 40
0.0
 40
0.0
 40
0.0
 40
0.0
 40
0.4426239398
 40
0.6980886179
 40
1.0
 40
1.0
 40
1.0
 40
1.0
 10
18.0831647769
 20
13.3547637136
 30
0.0
 10
18.0662884891
 20
13.3658582027
 30
0.0
 10
18.0369912813
 20
13.3796692478
 30
0.0
 10
17.9924127122
 20
13.3899067921
 30
0.0
 10
17.9667185704
 20
13.3909393618
 30
0.0
 10
17.9529970427
 20
13.3897167114
 30
0.0
  0
SPLINE
  5
393
100
AcDbEntity
  8
02___PRT_ALL_AXES
100
AcDbSpline
 62
7
  6
BYLAYER
 70
0
 71
3
 72
15
 73
11
 74
0
 42
0.0000001
 43
0.0000001
 44
0.0000000001
 40
0.0
 40
0.0
 40
0.0
 40
0.0
 40
0.1734563934
 40
0.3392725583
 40
0.4926163165
 40
0.6299720811
 40
0.7487638761
 40
0.8480145523
 40
0.9296139082
 40
1.0
 40
1.0
 40
1.0
 40
1.0
 10
18.4171421415
 20
13.0092820466
 30
0.0
 10
18.4170172882
 20
13.0120674298
 30
0.0
 10
18.4165805111
 20
13.0175091439
 30
0.0
 10
18.4153564397
 20
13.0253404179
 30
0.0
 10
18.4136081998
 20
13.0324781396
 30
0.0
 10
18.4113953283
 20
13.038691996
 30
0.0
 10
18.4087891509
 20
13.0437998802
 30
0.0
 10
18.405847384
 20
13.0476581366
 30
0.0
 10
18.4025952462
 20
13.0501675113
 30
0.0
 10
18.4001342037
 20
13.050797945
 30
0.0
 10
18.3990028012
 20
13.0507967354
 30
0.0
  0
SPLINE
  5
394
100
AcDbEntity
  8
0
100
AcDbSpline
 62
7
  6
BYLAYER
 70
0
 71
3
 72
15
 73
11
 74
0
 42
0.0000001
 43
0.0000001
 44
0.0000000001
 40
0.0
 40
0.0
 40
0.0
 40
0.0
 40
0.0961941024
 40
0.1977436259
 40
0.3066982423
 40
0.4245729732
 40
0.5523848497
 40
0.690762118
 40
0.840005448
 40
1.0
 40
1.0
 40
1.0
 40
1.0
 10
17.9000190589
 20
11.725849922
 30
0.0
 10
17.8918692446
 20
11.7274142362
 30
0.0
 10
17.8753917852
 20
11.732236098
 30
0.0
 10
17.8515442068
 20
11.7439421714
 30
0.0
 10
17.8281889763
 20
11.7601390535
 30
0.0
 10
17.8054407408
 20
11.7807031565
 30
0.0
 10
17.783393427
 20
11.8055103606
 30
0.0
 10
17.7621471013
 20
11.834427352
 30
0.0
 10
17.7418130528
 20
11.8672950501
 30
0.0
 10
17.7293569287
 20
11.8909103809
 30
0.0
 10
17.7232762937
 20
11.9033014122
 30
0.0
  0
SPLINE
  5
395
100
AcDbEntity
  8
0
100
AcDbSpline
 62
7
  6
BYLAYER
 70
0
 71
3
 72
43
 73
39
 74
0
 42
0.0000001
 43
0.0000001
 44
0.0000000001
 40
0.0
 40
0.0
 40
0.0
 40
0.0
 40
0.050141467
 40
0.1037185831
 40
0.1604558073
 40
0.2200198118
 40
0.2820136577
 40
0.3460086441
 40
0.4115537647
 40
0.4781870476
 40
0.5454486035
 40
0.579178295
 40
0.6129013297
 40
0.6465678969
 40
0.6801323698
 40
0.7135547855
 40
0.7468028422
 40
0.7798551533
 40
0.8127067049
 40
0.8453788286
 40
0.8616678903
 40
0.8779438918
 40
0.8942307539
 40
0.9105650665
 40
0.9270031347
 40
0.9352879629
 40
0.9436312277
 40
0.9520368565
 40
0.9604667959
 40
0.968699652
 40
0.9725708248
 40
0.9761312499
 40
0.9793933998
 40
0.9824401403
 40
0.9853681327
 40
0.9882595741
 40
0.9940645113
 40
1.0
 40
1.0
 40
1.0
 40
1.0
 10
17.4352945899
 20
11.968124775
 30
0.0
 10
17.4276730145
 20
11.9852217039
 30
0.0
 10
17.4133846871
 20
12.0212569465
 30
0.0
 10
17.3952661647
 20
12.0783945709
 30
0.0
 10
17.3799079244
 20
12.1399653149
 30
0.0
 10
17.3674934047
 20
12.2053919365
 30
0.0
 10
17.3581973292
 20
12.2740668489
 30
0.0
 10
17.3521795042
 20
12.3453457262
 30
0.0
 10
17.349589527
 20
12.4185643421
 30
0.0
 10
17.3505689048
 20
12.4930413586
 30
0.0
 10
17.3544721087
 20
12.5555259748
 30
0.0
 10
17.3595345927
 20
12.6055668065
 30
0.0
 10
17.3643280377
 20
12.6430158551
 30
0.0
 10
17.370139729
 20
12.6802581788
 30
0.0
 10
17.3770014127
 20
12.7172078673
 30
0.0
 10
17.3849534837
 20
12.7537791749
 30
0.0
 10
17.3940502484
 20
12.7898865
 30
0.0
 10
17.4043681434
 20
12.8254439138
 30
0.0
 10
17.4160209434
 20
12.8603614357
 30
0.0
 10
17.427003469
 20
12.8888762092
 30
0.0
 10
17.4366924595
 20
12.9112237198
 30
0.0
 10
17.4444709713
 20
12.9277228882
 30
0.0
 10
17.4528567337
 20
12.9439427052
 30
0.0
 10
17.4619879372
 20
12.9598264787
 30
0.0
 10
17.4703826609
 20
12.9726671664
 30
0.0
 10
17.4777661498
 20
12.9825653288
 30
0.0
 10
17.4837479378
 20
12.9897522184
 30
0.0
 10
17.4902722956
 20
12.9965380179
 30
0.0
 10
17.4974402795
 20
13.0025779521
 30
0.0
 10
17.504126961
 20
13.0065075282
 30
0.0
 10
17.5097630033
 20
13.0081824322
 30
0.0
 10
17.5137782242
 20
13.0085192231
 30
0.0
 10
17.5174479731
 20
13.0078953917
 30
0.0
 10
17.5206472945
 20
13.0065322857
 30
0.0
 10
17.5233627351
 20
13.0046051851
 30
0.0
 10
17.5264622524
 20
13.0015485527
 30
0.0
 10
17.529595314
 20
12.9970241601
 30
0.0
 10
17.5315238567
 20
12.9930783627
 30
0.0
 10
17.5323993861
 20
12.9910428351
 30
0.0
  0
SPLINE
  5
396
100
AcDbEntity
  8
02___PRT_ALL_AXES
100
AcDbSpline
 62
7
  6
BYLAYER
 70
0
 71
3
 72
17
 73
13
 74
0
 42
0.0000001
 43
0.0000001
 44
0.0000000001
 40
0.0
 40
0.0
 40
0.0
 40
0.0
 40
0.0328478074
 40
0.0676279268
 40
0.1059114104
 40
0.148752321
 40
0.2498936423
 40
0.3721854089
 40
0.5131913382
 40
0.6685235917
 40
0.8329156281
 40
1.0
 40
1.0
 40
1.0
 40
1.0
 10
18.39901299
 20
12.9570469378
 30
0.0
 10
18.3996585512
 20
12.957047628
 30
0.0
 10
18.4009933516
 20
12.9572356905
 30
0.0
 10
18.4029289872
 20
12.9580508748
 30
0.0
 10
18.4047993242
 20
12.9593768603
 30
0.0
 10
18.4073262882
 20
12.9619352436
 30
0.0
 10
18.4101618384
 20
12.9663939928
 30
0.0
 10
18.4129107017
 20
12.9730291034
 30
0.0
 10
18.4150775521
 20
12.9809854676
 30
0.0
 10
18.4165682289
 20
12.9899294501
 30
0.0
 10
18.4173114478
 20
12.9994786288
 30
0.0
 10
18.4172891851
 20
13.0060016134
 30
0.0
 10
18.4171421415
 20
13.0092820466
 30
0.0
  0
SPLINE
  5
397
100
AcDbEntity
  8
0
100
AcDbSpline
 62
7
  6
BYLAYER
 70
0
 71
3
 72
29
 73
25
 74
0
 42
0.0000001
 43
0.0000001
 44
0.0000000001
 40
0.0
 40
0.0
 40
0.0
 40
0.0
 40
0.0126081339
 40
0.0257622284
 40
0.0393672543
 40
0.0533557758
 40
0.0823008432
 40
0.112333252
 40
0.1432763082
 40
0.1749958692
 40
0.2073800824
 40
0.2403297157
 40
0.307563884
 40
0.3760174845
 40
0.445052033
 40
0.5140576877
 40
0.5824464442
 40
0.649652086
 40
0.7151328763
 40
0.7783759206
 40
0.8388992425
 40
0.8962606029
 40
0.9500827803
 40
1.0
 40
1.0
 40
1.0
 40
1.0
 10
17.5323993861
 20
12.9910428351
 30
0.0
 10
17.5342447608
 20
12.9867525037
 30
0.0
 10
17.5371522504
 20
12.9776205273
 30
0.0
 10
17.5402286169
 20
12.9633610935
 30
0.0
 10
17.5425690387
 20
12.9484427587
 30
0.0
 10
17.5450580532
 20
12.9276456079
 30
0.0
 10
17.5472990769
 20
12.9007035182
 30
0.0
 10
17.5493248311
 20
12.8674561382
 30
0.0
 10
17.5510544705
 20
12.8331627085
 30
0.0
 10
17.5527087371
 20
12.7979939554
 30
0.0
 10
17.5544314808
 20
12.762084162
 30
0.0
 10
17.5569729187
 20
12.7130433694
 30
0.0
 10
17.5607697106
 20
12.6506889603
 30
0.0
 10
17.566693182
 20
12.5750816825
 30
0.0
 10
17.5742494361
 20
12.4989590491
 30
0.0
 10
17.5835820536
 20
12.4230564553
 30
0.0
 10
17.5947667243
 20
12.3480880317
 30
0.0
 10
17.6078274304
 20
12.2747478736
 30
0.0
 10
17.6227448511
 20
12.2037074866
 30
0.0
 10
17.6394625174
 20
12.1356129571
 30
0.0
 10
17.6578889511
 20
12.0710806614
 30
0.0
 10
17.6779056256
 20
12.0106850414
 30
0.0
 10
17.6993632633
 20
11.9549753717
 30
0.0
 10
17.7151303983
 20
11.9199010018
 30
0.0
 10
17.7232762937
 20
11.9033014122
 30
0.0
  0
SPLINE
  5
398
100
AcDbEntity
  8
0
100
AcDbSpline
 62
7
  6
BYLAYER
 70
0
 71
3
 72
9
 73
5
 74
0
 42
0.0000001
 43
0.0000001
 44
0.0000000001
 40
0.0
 40
0.0
 40
0.0
 40
0.0
 40
0.2413018488
 40
1.0
 40
1.0
 40
1.0
 40
1.0
 10
16.6397927394
 20
11.5990010644
 30
0.0
 10
16.6392636651
 20
11.5994053116
 30
0.0
 10
16.6369877757
 20
11.6009707877
 30
0.0
 10
16.6344167631
 20
11.6020888267
 30
0.0
 10
16.6324125169
 20
11.6026936178
 30
0.0
  0
SPLINE
  5
399
100
AcDbEntity
  8
0
100
AcDbSpline
 62
7
  6
BYLAYER
 70
0
 71
3
 72
9
 73
5
 74
0
 42
0.0000001
 43
0.0000001
 44
0.0000000001
 40
0.0
 40
0.0
 40
0.0
 40
0.0
 40
0.2415462727
 40
1.0
 40
1.0
 40
1.0
 40
1.0
 10
16.6324125169
 20
11.6026936178
 30
0.0
 10
16.6317064094
 20
11.6029066892
 30
0.0
 10
16.6287471034
 20
11.6036676472
 30
0.0
 10
16.6256756835
 20
11.603965985
 30
0.0
 10
16.6233597657
 20
11.603965985
 30
0.0
  0
SPLINE
  5
39A
100
AcDbEntity
  8
0
100
AcDbSpline
 62
7
  6
BYLAYER
 70
0
 71
3
 72
11
 73
7
 74
0
 42
0.0000001
 43
0.0000001
 44
0.0000000001
 40
0.0
 40
0.0
 40
0.0
 40
0.0
 40
0.2268727775
 40
0.4649931183
 40
0.7221570508
 40
1.0
 40
1.0
 40
1.0
 40
1.0
 10
16.5782841029
 20
11.5781200726
 30
0.0
 10
16.5791426125
 20
11.5763674352
 30
0.0
 10
16.581546523
 20
11.5730597831
 30
0.0
 10
16.586687899
 20
11.5694118204
 30
0.0
 10
16.5930355348
 20
11.5671955025
 30
0.0
 10
16.597657804
 20
11.5667358981
 30
0.0
 10
16.6000478692
 20
11.5667358981
 30
0.0
  0
SPLINE
  5
39B
100
AcDbEntity
  8
0
100
AcDbSpline
 62
7
  6
BYLAYER
 70
0
 71
3
 72
14
 73
10
 74
0
 42
0.0000001
 43
0.0000001
 44
0.0000000001
 40
0.0
 40
0.0
 40
0.0
 40
0.0
 40
0.2915003628
 40
0.4244867615
 40
0.5498613636
 40
0.6686579236
 40
0.7821977603
 40
0.8920504402
 40
1.0
 40
1.0
 40
1.0
 40
1.0
 10
16.9747231673
 20
13.3260172785
 30
0.0
 10
16.9640478971
 20
13.3393484224
 30
0.0
 10
16.9471818315
 20
13.357820356
 30
0.0
 10
16.922371215
 20
13.3784342896
 30
0.0
 10
16.904001816
 20
13.3907947569
 30
0.0
 10
16.885356188
 20
13.4004716924
 30
0.0
 10
16.8664908664
 20
13.4074273268
 30
0.0
 10
16.8474738106
 20
13.4116199647
 30
0.0
 10
16.8346941471
 20
13.4125551769
 30
0.0
 10
16.8283695089
 20
13.4125552806
 30
0.0
  0
SPLINE
  5
39C
100
AcDbEntity
  8
0
100
AcDbSpline
 62
7
  6
BYLAYER
 70
0
 71
3
 72
12
 73
8
 74
0
 42
0.0000001
 43
0.0000001
 44
0.0000000001
 40
0.0
 40
0.0
 40
0.0
 40
0.0
 40
0.2902348989
 40
0.5480803471
 40
0.7807810878
 40
0.8912991045
 40
1.0
 40
1.0
 40
1.0
 40
1.0
 10
17.142513597
 20
13.2333055837
 30
0.0
 10
17.1333561932
 20
13.2443949496
 30
0.0
 10
17.1146503951
 20
13.2642619953
 30
0.0
 10
17.0834215647
 20
13.2874954816
 30
0.0
 10
17.0558570691
 20
13.2996499948
 30
0.0
 10
17.0339001904
 20
13.3043537922
 30
0.0
 10
17.0230219842
 20
13.3051326909
 30
0.0
 10
17.0176356608
 20
13.3051339914
 30
0.0
  0
SPLINE
  5
39D
100
AcDbEntity
  8
0
100
AcDbSpline
 62
7
  6
BYLAYER
 70
0
 71
3
 72
11
 73
7
 74
0
 42
0.0000001
 43
0.0000001
 44
0.0000000001
 40
0.0
 40
0.0
 40
0.0
 40
0.0
 40
0.2739587118
 40
0.5322646543
 40
0.774030566
 40
1.0
 40
1.0
 40
1.0
 40
1.0
 10
14.4966513803
 20
13.0269151287
 30
0.0
 10
14.5027351171
 20
13.0466021081
 30
0.0
 10
14.515634182
 20
13.0845310743
 30
0.0
 10
14.5379459864
 20
13.1383557982
 30
0.0
 10
14.5626672334
 20
13.1871115546
 30
0.0
 10
14.5813732523
 20
13.216989049
 30
0.0
 10
14.5911877137
 20
13.2308650475
 30
0.0
  0
SPLINE
  5
39E
100
AcDbEntity
  8
0
100
AcDbSpline
 62
7
  6
BYLAYER
 70
0
 71
3
 72
21
 73
17
 74
0
 42
0.0000001
 43
0.0000001
 44
0.0000000001
 40
0.0
 40
0.0
 40
0.0
 40
0.0
 40
0.0469103077
 40
0.0973700008
 40
0.1514775052
 40
0.209114359
 40
0.2700026692
 40
0.3337438361
 40
0.3998438803
 40
0.4677394262
 40
0.6064127992
 40
0.7446426997
 40
0.8119953021
 40
0.8773471765
 40
0.9401884327
 40
1.0
 40
1.0
 40
1.0
 40
1.0
 10
14.5901484835
 20
11.876971665
 30
0.0
 10
14.5795253745
 20
11.8921214678
 30
0.0
 10
14.5593680489
 20
11.9249153378
 30
0.0
 10
14.5330533555
 20
11.9786317889
 30
0.0
 10
14.5095386407
 20
12.0381966785
 30
0.0
 10
14.488892396
 20
12.103131159
 30
0.0
 10
14.4712182116
 20
12.1728565924
 30
0.0
 10
14.4566460234
 20
12.2466954432
 30
0.0
 10
14.4452994379
 20
12.3238905634
 30
0.0
 10
14.4345428482
 20
12.4309331708
 30
0.0
 10
14.4298352383
 20
12.5670272359
 30
0.0
 10
14.436474495
 20
12.7028296015
 30
0.0
 10
14.4487844106
 20
12.8090167709
 30
0.0
 10
14.4612392919
 20
12.8851670811
 30
0.0
 10
14.4768817595
 20
12.9576865785
 30
0.0
 10
14.4896859352
 20
13.0043749402
 30
0.0
 10
14.4966513803
 20
13.0269151287
 30
0.0
  0
SPLINE
  5
39F
100
AcDbEntity
  8
0
100
AcDbSpline
 62
7
  6
BYLAYER
 70
0
 71
3
 72
13
 73
9
 74
0
 42
0.0000001
 43
0.0000001
 44
0.0000000001
 40
0.0
 40
0.0
 40
0.0
 40
0.0
 40
0.1086690164
 40
0.2191528836
 40
0.3331546537
 40
0.4521920686
 40
0.7099105393
 40
1.0
 40
1.0
 40
1.0
 40
1.0
 10
17.0175997278
 20
11.8012290027
 30
0.0
 10
17.0229839535
 20
11.8012277574
 30
0.0
 10
17.0338578051
 20
11.8020003866
 30
0.0
 10
17.0500458792
 20
11.8054699332
 30
0.0
 10
17.0661145785
 20
11.8112252765
 30
0.0
 10
17.0878718162
 20
11.8222008764
 30
0.0
 10
17.1145966757
 20
11.8420429653
 30
0.0
 10
17.1332829716
 20
11.8618895265
 30
0.0
 10
17.1424389981
 20
11.8729688887
 30
0.0
  0
SPLINE
  5
3A0
100
AcDbEntity
  8
0
100
AcDbSpline
 62
7
  6
BYLAYER
 70
0
 71
3
 72
9
 73
5
 74
0
 42
0.0000001
 43
0.0000001
 44
0.0000000001
 40
0.0
 40
0.0
 40
0.0
 40
0.0
 40
0.521075301
 40
1.0
 40
1.0
 40
1.0
 40
1.0
 10
17.0035501793
 20
11.8011833828
 30
0.0
 10
16.9955514863
 20
11.7941451899
 30
0.0
 10
16.9792835506
 20
11.7816216602
 30
0.0
 10
16.9611245528
 20
11.7719450961
 30
0.0
 10
16.9520657067
 20
11.7682261606
 30
0.0
  0
SPLINE
  5
3A1
100
AcDbEntity
  8
0
100
AcDbSpline
 62
7
  6
BYLAYER
 70
0
 71
3
 72
9
 73
5
 74
0
 42
0.0000001
 43
0.0000001
 44
0.0000000001
 40
0.0
 40
0.0
 40
0.0
 40
0.0
 40
0.5083834383
 40
1.0
 40
1.0
 40
1.0
 40
1.0
 10
16.9520657067
 20
11.7682261606
 30
0.0
 10
16.9442104769
 20
11.7650013467
 30
0.0
 10
16.9281604318
 20
11.7599909786
 30
0.0
 10
16.9114156488
 20
11.7582607881
 30
0.0
 10
16.9032042911
 20
11.7582604974
 30
0.0
  0
SPLINE
  5
3A2
100
AcDbEntity
  8
0
100
AcDbSpline
 62
7
  6
BYLAYER
 70
0
 71
3
 72
11
 73
7
 74
0
 42
0.0000001
 43
0.0000001
 44
0.0000000001
 40
0.0
 40
0.0
 40
0.0
 40
0.0
 40
0.2303967439
 40
0.4692158413
 40
0.7238405141
 40
1.0
 40
1.0
 40
1.0
 40
1.0
 10
16.9032042912
 20
13.3481027191
 30
0.0
 10
16.9117226551
 20
13.3481033847
 30
0.0
 10
16.9291219968
 20
13.3462311489
 30
0.0
 10
16.9547373254
 20
13.3379316824
 30
0.0
 10
16.9798574527
 20
13.324276794
 30
0.0
 10
16.9954704209
 20
13.3122575711
 30
0.0
 10
17.0031508455
 20
13.3055298718
 30
0.0
  0
SPLINE
  5
3A3
100
AcDbEntity
  8
0
100
AcDbSpline
 62
7
  6
BYLAYER
 70
0
 71
3
 72
12
 73
8
 74
0
 42
0.0000001
 43
0.0000001
 44
0.0000000001
 40
0.0
 40
0.0
 40
0.0
 40
0.0
 40
0.111502301
 40
0.2244629417
 40
0.4598669732
 40
0.7162086617
 40
1.0
 40
1.0
 40
1.0
 40
1.0
 10
16.8283766317
 20
11.693807954
 30
0.0
 10
16.8338224925
 20
11.6938085737
 30
0.0
 10
16.8447981252
 20
11.6945009644
 30
0.0
 10
16.8669144112
 20
11.6986832539
 30
0.0
 10
16.8947182105
 20
11.7094469268
 30
0.0
 10
16.9266191611
 20
11.7302517981
 30
0.0
 10
16.946056613
 20
11.7482644887
 30
0.0
 10
16.9555896397
 20
11.7583261721
 30
0.0
  0
SPLINE
  5
3A4
100
AcDbEntity
  8
0
100
AcDbSpline
 62
7
  6
BYLAYER
 70
0
 71
3
 72
37
 73
33
 74
0
 42
0.0000001
 43
0.0000001
 44
0.0000000001
 40
0.0
 40
0.0
 40
0.0
 40
0.0
 40
0.0083670429
 40
0.0168454409
 40
0.0345229376
 40
0.0537849666
 40
0.0751384781
 40
0.098889679
 40
0.1251821817
 40
0.1540363328
 40
0.1853824894
 40
0.2190800902
 40
0.2549339761
 40
0.292707351
 40
0.3321280239
 40
0.414678105
 40
0.4999974197
 40
0.5853168752
 40
0.6678674257
 40
0.7072883208
 40
0.7450621429
 40
0.780916453
 40
0.8146144006
 40
0.845961197
 40
0.874815829
 40
0.9011087455
 40
0.9248606154
 40
0.9462145267
 40
0.9654768832
 40
0.9831547478
 40
0.9916330898
 40
1.0
 40
1.0
 40
1.0
 40
1.0
 10
14.7970629589
 20
11.693807954
 30
0.0
 10
14.7915783702
 20
11.6938073299
 30
0.0
 10
14.7805229994
 20
11.6945071074
 30
0.0
 10
14.7582446601
 20
11.6987513238
 30
0.0
 10
14.7302417858
 20
11.7096675616
 30
0.0
 10
14.6981236662
 20
11.7307669613
 30
0.0
 10
14.6671674996
 20
11.7596777752
 30
0.0
 10
14.6375820009
 20
11.7960914653
 30
0.0
 10
14.6095729754
 20
11.839670595
 30
0.0
 10
14.5833694006
 20
11.8900216606
 30
0.0
 10
14.5592069081
 20
11.9466864348
 30
0.0
 10
14.537309267
 20
12.0091384642
 30
0.0
 10
14.5178826367
 20
12.0767901202
 30
0.0
 10
14.5011149781
 20
12.1490021817
 30
0.0
 10
14.4822349065
 20
12.2520299797
 30
0.0
 10
14.4665540436
 20
12.3871709589
 30
0.0
 10
14.460286017
 20
12.5531728846
 30
0.0
 10
14.4665530049
 20
12.7191751256
 30
0.0
 10
14.4822323064
 20
12.8543168533
 30
0.0
 10
14.5011120747
 20
12.9573454624
 30
0.0
 10
14.5178787928
 20
13.0295584697
 30
0.0
 10
14.5373049232
 20
13.0972111159
 30
0.0
 10
14.5592024837
 20
13.1596641385
 30
0.0
 10
14.583364036
 20
13.2163303481
 30
0.0
 10
14.6095673482
 20
13.2666827155
 30
0.0
 10
14.6375764322
 20
13.3102629865
 30
0.0
 10
14.6671610564
 20
13.3466786014
 30
0.0
 10
14.6981171763
 20
13.3755909303
 30
0.0
 10
14.730235366
 20
13.396691271
 30
0.0
 10
14.7582378026
 20
13.4076099524
 30
0.0
 10
14.7805161943
 20
13.4118545118
 30
0.0
 10
14.7915713344
 20
13.4125553706
 30
0.0
 10
14.7970558361
 20
13.4125552806
 30
0.0
  0
SPLINE
  5
3A5
100
AcDbEntity
  8
0
100
AcDbSpline
 62
7
  6
BYLAYER
 70
0
 71
3
 72
13
 73
9
 74
0
 42
0.0000001
 43
0.0000001
 44
0.0000000001
 40
0.0
 40
0.0
 40
0.0
 40
0.0
 40
0.2599257192
 40
0.5278656773
 40
0.6572944082
 40
0.7798083707
 40
0.8939980774
 40
1.0
 40
1.0
 40
1.0
 40
1.0
 10
16.6233597657
 20
11.603965985
 30
0.0
 10
16.6185275772
 20
11.603965985
 30
0.0
 10
16.6086756618
 20
11.6020111897
 30
0.0
 10
16.5978535136
 20
11.5958761578
 30
0.0
 10
16.5908742125
 20
11.589124876
 30
0.0
 10
16.5869173078
 20
11.5835300698
 30
0.0
 10
16.5843879414
 20
11.5776265723
 30
0.0
 10
16.583741392
 20
11.5735255142
 30
0.0
 10
16.5837217504
 20
11.5715549673
 30
0.0
  0
SPLINE
  5
3A6
100
AcDbEntity
  8
0
100
AcDbSpline
 62
7
  6
BYLAYER
 70
0
 71
3
 72
14
 73
10
 74
0
 42
0.0000001
 43
0.0000001
 44
0.0000000001
 40
0.0
 40
0.0
 40
0.0
 40
0.0
 40
0.2699467282
 40
0.4094087518
 40
0.5450901376
 40
0.6729090147
 40
0.7905447848
 40
0.8983603065
 40
1.0
 40
1.0
 40
1.0
 40
1.0
 10
16.6000478692
 20
11.5667358981
 30
0.0
 10
16.6058224455
 20
11.5667358981
 30
0.0
 10
16.6146658398
 20
11.5688263855
 30
0.0
 10
16.624853505
 20
11.5745757935
 30
0.0
 10
16.6314434604
 20
11.5802352367
 30
0.0
 10
16.6363921006
 20
11.5868029847
 30
0.0
 10
16.6393465929
 20
11.5938617188
 30
0.0
 10
16.6400329224
 20
11.6009476396
 30
0.0
 10
16.6388352278
 20
11.6053924858
 30
0.0
 10
16.6378787876
 20
11.6073450473
 30
0.0
  0
SPLINE
  5
3A7
100
AcDbEntity
  8
0
100
AcDbSpline
 62
7
  6
BYLAYER
 70
0
 71
3
 72
36
 73
32
 74
0
 42
0.0000001
 43
0.0000001
 44
0.0000000001
 40
0.0
 40
0.0
 40
0.0
 40
0.0
 40
0.0083670226
 40
0.0168454964
 40
0.0345233247
 40
0.0537855885
 40
0.0751391693
 40
0.0988907237
 40
0.1251832417
 40
0.1540374924
 40
0.1853841511
 40
0.2190817412
 40
0.2549360876
 40
0.2927100049
 40
0.3321309426
 40
0.4146825264
 40
0.500003704
 40
0.5853255999
 40
0.6678789708
 40
0.7073016536
 40
0.7450767951
 40
0.7809334887
 40
0.8146332405
 40
0.8459817258
 40
0.8748391269
 40
0.901133642
 40
0.9248874905
 40
0.946243734
 40
0.9655073027
 40
0.9831865006
 40
1.0
 40
1.0
 40
1.0
 40
1.0
 10
16.828378237
 20
11.7582604981
 30
0.0
 10
16.8233052196
 20
11.7582598916
 30
0.0
 10
16.8130793962
 20
11.7589072274
 30
0.0
 10
16.7924726206
 20
11.7628330909
 30
0.0
 10
16.7665702714
 20
11.7729291379
 30
0.0
 10
16.7368615275
 20
11.7924448905
 30
0.0
 10
16.7082269599
 20
11.8191854329
 30
0.0
 10
16.6808613329
 20
11.8528668934
 30
0.0
 10
16.6549527384
 20
11.8931752907
 30
0.0
 10
16.6307141139
 20
11.9397478368
 30
0.0
 10
16.608364783
 20
11.9921609226
 30
0.0
 10
16.5881083108
 20
12.0499264872
 30
0.0
 10
16.5701386284
 20
12.1125020515
 30
0.0
 10
16.5546287791
 20
12.1792960474
 30
0.0
 10
16.5371625398
 20
12.2745936143
 30
0.0
 10
16.5226577405
 20
12.3995959436
 30
0.0
 10
16.5168579611
 20
12.5531445754
 30
0.0
 10
16.5226512612
 20
12.7066946488
 30
0.0
 10
16.5371532608
 20
12.8316998045
 30
0.0
 10
16.5546142493
 20
12.9270012932
 30
0.0
 10
16.5701237136
 20
12.9937986786
 30
0.0
 10
16.5880894478
 20
13.0563789414
 30
0.0
 10
16.6083439715
 20
13.1141493512
 30
0.0
 10
16.6306930673
 20
13.1665671207
 30
0.0
 10
16.6549275517
 20
13.2131466349
 30
0.0
 10
16.6808359462
 20
13.2534604282
 30
0.0
 10
16.7082019546
 20
13.2871476307
 30
0.0
 10
16.7368288133
 20
13.313897853
 30
0.0
 10
16.7665539363
 20
13.333415536
 30
0.0
 10
16.797157339
 20
13.3453800636
 30
0.0
 10
16.8181551318
 20
13.3481003345
 30
0.0
 10
16.8283493403
 20
13.3481027162
 30
0.0
  0
SPLINE
  5
3A8
100
AcDbEntity
  8
0
100
AcDbSpline
 62
7
  6
BYLAYER
 70
0
 71
3
 72
36
 73
32
 74
0
 42
0.0000001
 43
0.0000001
 44
0.0000000001
 40
0.0
 40
0.0
 40
0.0
 40
0.0
 40
0.0083670949
 40
0.0168457168
 40
0.0345240545
 40
0.0537870656
 40
0.0751415651
 40
0.0988941488
 40
0.1251877589
 40
0.1540431229
 40
0.1853908841
 40
0.2190895393
 40
0.2549448877
 40
0.2927197243
 40
0.3321414793
 40
0.4146943254
 40
0.5000161793
 40
0.5853380871
 40
0.6678907642
 40
0.7073128365
 40
0.7450871965
 40
0.7809429485
 40
0.8146416148
 40
0.8459888901
 40
0.8748449896
 40
0.9011381537
 40
0.9248906611
 40
0.9462456602
 40
0.9655081934
 40
0.9831867046
 40
1.0
 40
1.0
 40
1.0
 40
1.0
 10
16.9032042911
 20
11.7582604974
 30
0.0
 10
16.898131206
 20
11.7582603177
 30
0.0
 10
16.8879052558
 20
11.7589085345
 30
0.0
 10
16.8672982789
 20
11.7628362314
 30
0.0
 10
16.8413958257
 20
11.7729346819
 30
0.0
 10
16.811687175
 20
11.7924532471
 30
0.0
 10
16.783052783
 20
11.8191966197
 30
0.0
 10
16.7556874214
 20
11.8528809198
 30
0.0
 10
16.7297792007
 20
11.8931921483
 30
0.0
 10
16.7055410613
 20
11.9397674805
 30
0.0
 10
16.6831923327
 20
11.9921832735
 30
0.0
 10
16.6629365835
 20
12.0499514308
 30
0.0
 10
16.6449677364
 20
12.1125294357
 30
0.0
 10
16.6294588362
 20
12.1793256866
 30
0.0
 10
16.6119940566
 20
12.2746258317
 30
0.0
 10
16.597491266
 20
12.3996306692
 30
0.0
 10
16.5916941322
 20
12.5531813097
 30
0.0
 10
16.5974902772
 20
12.7067319996
 30
0.0
 10
16.6119947862
 20
12.8317366812
 30
0.0
 10
16.6294578332
 20
12.927036973
 30
0.0
 10
16.6449687638
 20
12.9938328991
 30
0.0
 10
16.6629359219
 20
13.0564113036
 30
0.0
 10
16.6831918077
 20
13.1141794663
 30
0.0
 10
16.7055421976
 20
13.166594612
 30
0.0
 10
16.7297778879
 20
13.2131711485
 30
0.0
 10
16.7556873956
 20
13.2534816338
 30
0.0
 10
16.7830544298
 20
13.2871652192
 30
0.0
 10
16.8116822264
 20
13.3139115393
 30
0.0
 10
16.8414082154
 20
13.3334250127
 30
0.0
 10
16.8720123636
 20
13.3453849803
 30
0.0
 10
16.8930101582
 20
13.3481019225
 30
0.0
 10
16.9032042912
 20
13.3481027191
 30
0.0
  0
SPLINE
  5
3A9
100
AcDbEntity
  8
0
100
AcDbSpline
 62
7
  6
BYLAYER
 70
0
 71
3
 72
10
 73
6
 74
0
 42
0.0000001
 43
0.0000001
 44
0.0000000001
 40
0.0
 40
0.0
 40
0.0
 40
0.0
 40
0.4967578267
 40
0.7526496402
 40
1.0
 40
1.0
 40
1.0
 40
1.0
 10
15.9083048635
 20
12.0127796918
 30
0.0
 10
15.9138511634
 20
12.0127796918
 30
0.0
 10
15.9223326769
 20
12.0106952674
 30
0.0
 10
15.9320352068
 20
12.0051167744
 30
0.0
 10
15.9363271105
 20
12.0014135972
 30
0.0
 10
15.9382126022
 20
11.9993957466
 30
0.0
  0
SPLINE
  5
3AA
100
AcDbEntity
  8
0
100
AcDbSpline
 62
7
  6
BYLAYER
 70
0
 71
3
 72
11
 73
7
 74
0
 42
0.0000001
 43
0.0000001
 44
0.0000000001
 40
0.0
 40
0.0
 40
0.0
 40
0.0
 40
0.2253108023
 40
0.4611431688
 40
0.7182434872
 40
1.0
 40
1.0
 40
1.0
 40
1.0
 10
15.6568678426
 20
11.9998390608
 30
0.0
 10
15.6574552472
 20
12.0017398789
 30
0.0
 10
15.6594203691
 20
12.0054357743
 30
0.0
 10
15.6643290313
 20
12.0096486836
 30
0.0
 10
15.6707655085
 20
12.0122461729
 30
0.0
 10
15.6755516843
 20
12.0127796918
 30
0.0
 10
15.678039615
 20
12.0127796918
 30
0.0
  0
SPLINE
  5
3AB
100
AcDbEntity
  8
0
100
AcDbSpline
 62
7
  6
BYLAYER
 70
0
 71
3
 72
11
 73
7
 74
0
 42
0.0000001
 43
0.0000001
 44
0.0000000001
 40
0.0
 40
0.0
 40
0.0
 40
0.0
 40
0.2785286996
 40
0.5385387614
 40
0.7791660819
 40
1.0
 40
1.0
 40
1.0
 40
1.0
 10
15.946751976
 20
11.9834597772
 30
0.0
 10
15.9531675787
 20
11.9648551278
 30
0.0
 10
15.9665389806
 20
11.9292039242
 30
0.0
 10
15.9890848652
 20
11.878933971
 30
0.0
 10
16.013284297
 20
11.8340136815
 30
0.0
 10
16.0311717075
 20
11.806684079
 30
0.0
 10
16.0404017723
 20
11.7941036208
 30
0.0
  0
SPLINE
  5
3AC
100
AcDbEntity
  8
0
100
AcDbSpline
 62
7
  6
BYLAYER
 70
0
 71
3
 72
11
 73
7
 74
0
 42
0.0000001
 43
0.0000001
 44
0.0000000001
 40
0.0
 40
0.0
 40
0.0
 40
0.0
 40
0.2883839645
 40
0.5455274457
 40
0.778655492
 40
1.0
 40
1.0
 40
1.0
 40
1.0
 10
16.0404017723
 20
11.7941036208
 30
0.0
 10
16.040825327
 20
11.7935263212
 30
0.0
 10
16.0415515897
 20
11.7923745358
 30
0.0
 10
16.042264996
 20
11.7905624811
 30
0.0
 10
16.0425084452
 20
11.7887924085
 30
0.0
 10
16.0423350146
 20
11.78765798
 30
0.0
 10
16.0421727542
 20
11.7871329163
 30
0.0
  0
SPLINE
  5
3AD
100
AcDbEntity
  8
0
100
AcDbSpline
 62
7
  6
BYLAYER
 70
0
 71
3
 72
37
 73
33
 74
0
 42
0.0000001
 43
0.0000001
 44
0.0000000001
 40
0.0
 40
0.0
 40
0.0
 40
0.0
 40
0.0083669102
 40
0.0168452522
 40
0.0345231168
 40
0.0537854733
 40
0.0751393846
 40
0.0988912545
 40
0.125184171
 40
0.154038803
 40
0.1853855994
 40
0.219083547
 40
0.2549378571
 40
0.2927116792
 40
0.3321325743
 40
0.4146831248
 40
0.5000025803
 40
0.585321895
 40
0.6678719761
 40
0.707292649
 40
0.7450660239
 40
0.7809199098
 40
0.8146175106
 40
0.8459636672
 40
0.8748178183
 40
0.901110321
 40
0.9248615219
 40
0.9462150334
 40
0.9654770624
 40
0.9831545591
 40
0.9916329571
 40
1.0
 40
1.0
 40
1.0
 40
1.0
 10
16.8283695089
 20
13.4125552806
 30
0.0
 10
16.8228850072
 20
13.4125553706
 30
0.0
 10
16.8118298671
 20
13.4118545118
 30
0.0
 10
16.7895514754
 20
13.4076099524
 30
0.0
 10
16.7615490388
 20
13.396691271
 30
0.0
 10
16.7294308491
 20
13.3755909303
 30
0.0
 10
16.6984747293
 20
13.3466786014
 30
0.0
 10
16.668890105
 20
13.3102629865
 30
0.0
 10
16.640881021
 20
13.2666827155
 30
0.0
 10
16.6146777088
 20
13.2163303481
 30
0.0
 10
16.5905161565
 20
13.1596641385
 30
0.0
 10
16.568618596
 20
13.0972111159
 30
0.0
 10
16.5491924656
 20
13.0295584697
 30
0.0
 10
16.5324257476
 20
12.9573454624
 30
0.0
 10
16.5135459792
 20
12.8543168533
 30
0.0
 10
16.4978666777
 20
12.7191751256
 30
0.0
 10
16.4915996898
 20
12.5531728846
 30
0.0
 10
16.4978677164
 20
12.3871709589
 30
0.0
 10
16.5135485793
 20
12.2520299797
 30
0.0
 10
16.5324286509
 20
12.1490021817
 30
0.0
 10
16.5491963095
 20
12.0767901202
 30
0.0
 10
16.5686229398
 20
12.0091384642
 30
0.0
 10
16.5905205809
 20
11.9466864348
 30
0.0
 10
16.6146830734
 20
11.8900216606
 30
0.0
 10
16.6408866482
 20
11.839670595
 30
0.0
 10
16.6688956737
 20
11.7960914653
 30
0.0
 10
16.6984811724
 20
11.7596777752
 30
0.0
 10
16.729437339
 20
11.7307669613
 30
0.0
 10
16.7615554586
 20
11.7096675616
 30
0.0
 10
16.7895583329
 20
11.6987513238
 30
0.0
 10
16.8118366722
 20
11.6945071074
 30
0.0
 10
16.822892043
 20
11.6938073299
 30
0.0
 10
16.8283766317
 20
11.693807954
 30
0.0
  0
SPLINE
  5
3AE
100
AcDbEntity
  8
0
100
AcDbSpline
 62
7
  6
BYLAYER
 70
0
 71
3
 72
36
 73
32
 74
0
 42
0.0000001
 43
0.0000001
 44
0.0000000001
 40
0.0
 40
0.0
 40
0.0
 40
0.0
 40
0.0083670675
 40
0.0168455588
 40
0.0345229506
 40
0.0537848273
 40
0.0751380914
 40
0.0988887632
 40
0.1251810076
 40
0.1540347913
 40
0.1853808388
 40
0.2190783067
 40
0.2549322212
 40
0.2927059895
 40
0.3321268916
 40
0.4146784359
 40
0.4999998611
 40
0.5853222145
 40
0.6678761583
 40
0.7072992242
 40
0.7450746714
 40
0.7809316822
 40
0.8146317913
 40
0.8459805474
 40
0.8748382445
 40
0.9011329812
 40
0.9248870532
 40
0.9462434374
 40
0.9655071258
 40
0.9831864436
 40
1.0
 40
1.0
 40
1.0
 40
1.0
 10
17.0176356608
 20
13.3051339914
 30
0.0
 10
17.0128368105
 20
13.30513515
 30
0.0
 10
17.0031636081
 20
13.3045227671
 30
0.0
 10
16.9836707254
 20
13.3008100978
 30
0.0
 10
16.9591677566
 20
13.2912626235
 30
0.0
 10
16.9310643555
 20
13.2728031524
 30
0.0
 10
16.9039778776
 20
13.2475089227
 30
0.0
 10
16.8780896324
 20
13.2156504011
 30
0.0
 10
16.8535817927
 20
13.177521387
 30
0.0
 10
16.8306527337
 20
13.1334672637
 30
0.0
 10
16.8095101742
 20
13.0838882868
 30
0.0
 10
16.7903488417
 20
13.029245508
 30
0.0
 10
16.7733492953
 20
12.9700528616
 30
0.0
 10
16.758677282
 20
12.9068694814
 30
0.0
 10
16.7421547193
 20
12.8167228797
 30
0.0
 10
16.7284327257
 20
12.6984768751
 30
0.0
 10
16.7229454675
 20
12.5532270722
 30
0.0
 10
16.7284249446
 20
12.4079754932
 30
0.0
 10
16.7421428904
 20
12.2897259402
 30
0.0
 10
16.758659533
 20
12.1995745799
 30
0.0
 10
16.7733307062
 20
12.1363869428
 30
0.0
 10
16.7903252886
 20
12.0771884833
 30
0.0
 10
16.8094848876
 20
12.022539877
 30
0.0
 10
16.8306261173
 20
11.9729547115
 30
0.0
 10
16.8535506384
 20
11.9288922164
 30
0.0
 10
16.8780588402
 20
11.8907569367
 30
0.0
 10
16.9039456966
 20
11.8588900403
 30
0.0
 10
16.9310254595
 20
11.8335853862
 30
0.0
 10
16.9591440869
 20
11.8151224793
 30
0.0
 10
16.9880934316
 20
11.8038041212
 30
0.0
 10
17.0079564759
 20
11.801231233
 30
0.0
 10
17.0175997278
 20
11.8012290027
 30
0.0
  0
SPLINE
  5
3AF
100
AcDbEntity
  8
0
100
AcDbSpline
 62
7
  6
BYLAYER
 70
0
 71
3
 72
36
 73
32
 74
0
 42
0.0000001
 43
0.0000001
 44
0.0000000001
 40
0.0
 40
0.0
 40
0.0
 40
0.0
 40
0.0168132753
 40
0.0344918128
 40
0.0537543403
 40
0.0751093152
 40
0.0988618401
 40
0.1251549806
 40
0.1540110967
 40
0.185358336
 40
0.2190570325
 40
0.2549127634
 40
0.2926870891
 40
0.3321092117
 40
0.4146618543
 40
0.499983746
 40
0.5853055789
 40
0.6678583816
 40
0.7072802123
 40
0.7450550903
 40
0.7809102779
 40
0.8146091598
 40
0.8459567299
 40
0.8748121091
 40
0.9011059708
 40
0.9248582135
 40
0.9462129153
 40
0.9654759767
 40
0.9831541631
 40
0.9916328632
 40
1.0
 40
1.0
 40
1.0
 40
1.0
 10
16.9427811307
 20
11.801229
 30
0.0
 10
16.9331380439
 20
11.8012297416
 30
0.0
 10
16.913275202
 20
11.8037994493
 30
0.0
 10
16.8843254353
 20
11.8151133002
 30
0.0
 10
16.8562062469
 20
11.8335718965
 30
0.0
 10
16.8291258255
 20
11.8588724067
 30
0.0
 10
16.8032381975
 20
11.8907353155
 30
0.0
 10
16.7787291038
 20
11.9288667948
 30
0.0
 10
16.7558035608
 20
11.9729257103
 30
0.0
 10
16.7346611794
 20
12.0225075549
 30
0.0
 10
16.7155003106
 20
12.0771531368
 30
0.0
 10
16.6985043451
 20
12.1363488999
 30
0.0
 10
16.6838316899
 20
12.1995341982
 30
0.0
 10
16.6673128832
 20
12.2896831629
 30
0.0
 10
16.6535921468
 20
12.4079307874
 30
0.0
 10
16.6481092632
 20
12.5531814004
 30
0.0
 10
16.6535931
 20
12.6984319622
 30
0.0
 10
16.6673122672
 20
12.8166797345
 30
0.0
 10
16.6838326136
 20
12.9068286236
 30
0.0
 10
16.6985031053
 20
12.9700142768
 30
0.0
 10
16.7155012222
 20
13.0292095692
 30
0.0
 10
16.7346612276
 20
13.0838553416
 30
0.0
 10
16.7558025824
 20
13.1334376266
 30
0.0
 10
16.7787305567
 20
13.1774953419
 30
0.0
 10
16.8032374394
 20
13.2156281938
 30
0.0
 10
16.8291248534
 20
13.2474907598
 30
0.0
 10
16.8562106031
 20
13.2727892268
 30
0.0
 10
16.8843133783
 20
13.2912531179
 30
0.0
 10
16.9088160904
 20
13.3008045886
 30
0.0
 10
16.9283089848
 20
13.3045204266
 30
0.0
 10
16.9379822426
 20
13.3051343818
 30
0.0
 10
16.9427811307
 20
13.3051339942
 30
0.0
  0
SPLINE
  5
3B0
100
AcDbEntity
  8
0
100
AcDbSpline
 62
7
  6
BYLAYER
 70
0
 71
3
 72
11
 73
7
 74
0
 42
0.0000001
 43
0.0000001
 44
0.0000000001
 40
0.0
 40
0.0
 40
0.0
 40
0.0
 40
0.2268727775
 40
0.4649931183
 40
0.7221570508
 40
1.0
 40
1.0
 40
1.0
 40
1.0
 10
16.6378787876
 20
11.6073450473
 30
0.0
 10
16.6370202781
 20
11.6090976847
 30
0.0
 10
16.6346163675
 20
11.6124053368
 30
0.0
 10
16.6294749916
 20
11.6160532995
 30
0.0
 10
16.6231273558
 20
11.6182696174
 30
0.0
 10
16.6185050866
 20
11.6187292218
 30
0.0
 10
16.6161150214
 20
11.6187292218
 30
0.0
  0
SPLINE
  5
3B1
100
AcDbEntity
  8
0
100
AcDbSpline
 62
7
  6
BYLAYER
 70
0
 71
3
 72
14
 73
10
 74
0
 42
0.0000001
 43
0.0000001
 44
0.0000000001
 40
0.0
 40
0.0
 40
0.0
 40
0.0
 40
0.2699467282
 40
0.4094087518
 40
0.5450901376
 40
0.6729090147
 40
0.7905447848
 40
0.8983603065
 40
1.0
 40
1.0
 40
1.0
 40
1.0
 10
16.6161150214
 20
11.6187292218
 30
0.0
 10
16.610340445
 20
11.6187292218
 30
0.0
 10
16.6014970507
 20
11.6166387344
 30
0.0
 10
16.5913093855
 20
11.6108893264
 30
0.0
 10
16.5847194301
 20
11.6052298832
 30
0.0
 10
16.5797707899
 20
11.5986621352
 30
0.0
 10
16.5768162977
 20
11.5916034011
 30
0.0
 10
16.5761299682
 20
11.5845174803
 30
0.0
 10
16.5773276628
 20
11.5800726341
 30
0.0
 10
16.5782841029
 20
11.5781200726
 30
0.0
  0
ELLIPSE
  5
3B2
100
AcDbEntity
  8
0
100
AcDbEllipse
 62
7
  6
BYLAYER
 10
4.8515
 20
11.8730551596
 30
0.0
 11
0.0
 21
0.0346497418
 31
0.0
 40
0.9018826229
 41
0.0
 42
1.5707963268
  0
ELLIPSE
  5
3B3
100
AcDbEntity
  8
0
100
AcDbEllipse
 62
7
  6
BYLAYER
 10
5.1015
 20
11.8730551596
 30
0.0
 11
0.0
 21
0.0346497418
 31
0.0
 40
0.9018826229
 41
-1.5707963268
 42
0.0
  0
ELLIPSE
  5
3B4
100
AcDbEntity
  8
0
100
AcDbEllipse
 62
7
  6
BYLAYER
 10
15.6651370346
 20
11.9207542447
 30
0.0
 11
-0.0018512424
 21
0.0465533539
 31
0.0
 40
0.6174930956
 41
-0.0245503198
 42
1.0513137948
  0
ELLIPSE
  5
3B5
100
AcDbEntity
  8
0
100
AcDbEllipse
 62
7
  6
BYLAYER
 10
15.8954022831
 20
11.9207542447
 30
0.0
 11
-0.0018512424
 21
0.0465533539
 31
0.0
 40
0.6174930956
 41
-1.5953466466
 42
-0.0245503198
  0
ELLIPSE
  5
3B6
100
AcDbEntity
  8
0
100
AcDbEllipse
 62
7
  6
BYLAYER
 10
15.9068525104
 20
11.4550803781
 30
0.0
 11
-0.0018512424
 21
0.0465533539
 31
0.0
 40
0.6174930956
 41
-2.0902788587
 42
-1.5953466466
  0
ENDSEC
  0
SECTION
  2
OBJECTS
  0
DICTIONARY
  5
C
100
AcDbDictionary
280
0
281
1
  3
ACAD_GROUP
350
D
  3
ACAD_MLINESTYLE
350
17
  3
ACAD_LAYOUT
350
1A
  3
ACAD_PLOTSETTINGS
350
19
  3
ACAD_PLOTSTYLENAME
350
E
  0
DICTIONARY
  5
D
102
{ACAD_REACTORS
330
C
102
}
100
AcDbDictionary
280
0
281
1
  0
ACDBDICTIONARYWDFLT
  5
E
102
{ACAD_REACTORS
330
C
102
}
100
AcDbDictionary
281
1
  3
Normal
350
F
100
AcDbDictionaryWithDefault
340
F
  0
DICTIONARY
  5
17
102
{ACAD_REACTORS
330
C
102
}
100
AcDbDictionary
280
0
281
1
  3
Standard
350
18
  0
DICTIONARY
  5
19
102
{ACAD_REACTORS
330
C
102
}
100
AcDbDictionary
281
1
  0
DICTIONARY
  5
1A
102
{ACAD_REACTORS
330
C
102
}
100
AcDbDictionary
281
1
  3
Model
350
3B7
  3
Layout1
350
3B8
  0
ACDBPLACEHOLDER
  5
F
102
{ACAD_REACTORS
330
E
102
}
  0
MLINESTYLE
  5
18
102
{ACAD_REACTORS
330
17
102
}
100
AcDbMlineStyle
  2
STANDARD
 70
0
  3

 62
256
 51
90.0
 52
90.0
 71
2
 49
0.5
 62
256
  6
BYLAYER
 49
-0.5
 62
256
  6
BYLAYER
  0
LAYOUT
  5
3B7
102
{ACAD_REACTORS
330
1A
102
}
100
AcDbPlotSettings
  1

  2
none_device
  4
ANSI_C_(22.00_x_17.00_Inches)
  6

 40
0.0
 41
0.0
 42
0.0
 43
0.0
 44
558.8
 45
431.8
 46
0.0
 47
0.0
 48
0.0
 49
0.0
140
0.0
141
0.0
142
1.0
143
1.0
 70
1024
 72
0
 73
0
 74
0
  7

 75
0
147
1.0
148
0.0
149
0.0
100
AcDbLayout
  1
Model
 70
0
 71
0
 10
0.0
 20
0.0
 11
22.0
 21
17.0
 12
0.0
 22
0.0
 32
0.0
 14
0.0
 24
0.0
 34
0.0
 15
0.0
 25
0.0
 35
0.0
146
0.0
 13
0.0
 23
0.0
 33
0.0
 16
1.0
 26
0.0
 36
0.0
 17
0.0
 27
1.0
 37
0.0
 76
0
330
218
345
0
346
0
  0
LAYOUT
  5
3B8
102
{ACAD_REACTORS
330
1A
102
}
100
AcDbPlotSettings
  1

  2
none_device
  4
ANSI_C_(22.00_x_17.00_Inches)
  6

 40
0.0
 41
0.0
 42
0.0
 43
0.0
 44
558.8
 45
431.8
 46
0.0
 47
0.0
 48
0.0
 49
0.0
140
0.0
141
0.0
142
1.0
143
1.0
 70
0
 72
0
 73
0
 74
0
  7

 75
0
147
1.0
148
0.0
149
0.0
100
AcDbLayout
  1
Layout1
 70
0
 71
1
 10
0.0
 20
0.0
 11
22.0
 21
17.0
 12
0.0
 22
0.0
 32
0.0
 14
0.0
 24
0.0
 34
0.0
 15
0.0
 25
0.0
 35
0.0
146
0.0
 13
0.0
 23
0.0
 33
0.0
 16
1.0
 26
0.0
 36
0.0
 17
0.0
 27
1.0
 37
0.0
 76
0
330
219
345
0
346
0
  0
ENDSEC
  0
EOF
